In Bloom, Come As You Are, Lithium

In Bloom, Come As You Are, Lithium

I’m really not sure how Kurt Cobain would feel about his masterpiece been played in full on a ukulele but I had to do it.

Nirvana was a big middle finger to the music industry exactly when it needed it, goodbye cheesy glam and hello alternative rock. Whilst ‘alternative’ was hardly new, the attention and opportunities Nirvana’s success brought allowed people to reconnect with music that felt more real, intimate and relevant. It was like Punks second coming….Grunge!

This video is part of a project I’m working on. I’m learning to play my favourite albums on a ukulele. If you enjoyed it why not check out some other classic albums that I arranged. Like Bleach or In Utero.

Nirvana Ukulele Tabs

Not sure how to read these? Check out my free course and you will be learning these ukulele tabs in no time.

In Bloom

A|-----8-----9-----6-----6-----4-----|-----8----------------------------------
E|-----6-----9-----6-----7-----5-----|--------------6-----9--------11-----6---
C|-----5-----6-----6-----6-----4-----|----------------------------------------
G|-----5-----6-----8-----8-----6-----|----------------------------------------

Come As You Are

A|-----------|-------------------------------------------------- 
E|-----------|--------5-----5--------------7-----7--------------
C|--4--4--5--|--6--------6-----6--6--5--4-----4--------4--4--5--
G|-----------|--------------------------------------------------

Lithium

A|----------4------2-9--------5/10----|-1-1-1----3-3-3----0-0-0----3-3-3-|-
E|--------2-----------------3------10-|-1-1-1----3-3-3----0-0-0----0-0-0-|-
C|-2----2--------2--------2-----------|-2-2-2----4-4-4----1-1-1----0-0-0-|-
G|------------------------------------|-3-3-3----5-5-5----2-2-2----0-0-0-|-

A|------------2-4/5----1-1-3-0--------------- E|----------------------------------3-5-2---- C|-6-6-4-6------------------------2---------- G|-------------------------------------------

MORE SONGS FROM THIS ALBUM?

Easy-to-print PDFs tabs for over 150 albums.

Easy-to-print PDFs tabs for over 150 albums.