Hello, Roll With It, Wonderwall

Hello, Roll With It, Wonderwall

I’ve learnt to play my top 50 albums of all time and this is number 50. Whats The Story Morning Glory is a masterpiece, Oasis’s crowning glory. Now let’s not get this twisted, just because its number 50 it’s NOT my favourite album of all time. However, it’s certainly up there.

 

I have so many good memories from various point of my life that are all related to this album.  Its an album riddled with driving, pulsing anthems that grip you immediately. Balanced with moving ballads like Cast No Shadow and Wonderwall. Of course not forgetting Champagne Supernova. In my opinion easily the best song on the album. Despite its length it’s beautiful lyrics, perfectly balanced by the melody, forms an uplifting and spine tingling ballad of love, life and everything under the sun.

This video is part of a project I’m working on. I’m learning to play my favourite albums on a ukulele. If you enjoyed it why not check out some other classic albums that I arranged. Like Stone Roses or The Smiths.

Oasis Ukulele Tabs

Not sure how to read these? Check out my free course and you will be learning these ukulele tabs in no time.

Hello

Intro Riff & Vocal Line

A|-5---5------|--|-------5-7-5----------------------|-7-10-7------7-10-7-----------------------
E|---7------7-|--|-5-5-8-------8-5----5-5-5-5-8-5-8-|--------10-8--------10-8----5-5-5-5-8-5-8-
C|------------|--|----------------------------------|------------------------------------------
G|------------|--|----------------------------------|------------------------------------------ 


A|-5/7-5-5-3-5---3----5/7-5-5-3-3-5-7-5-|-5/7-7-7----7-5----5-3----------3-5-3-5-5/7-5p3----- E|-------------5------------------------|--------------------------5-5-5-----------------3/5- C|--------------------------------------|---------------------------------------------------- G|--------------------------------------|----------------------------------------------------
Electric Guitar Riffs

A|-------7-7-7-|---|-7-------------------|---------------------------------------------
E|-5-5-5-5-5-5-|---|-8--------5--------5-|--------------5----8------8-7-5-1-2--------5-
C|-4-4-4-5-5-5-|-x3|-7----4-7------4-7---|-4-7-4----4-7------5-7----------0-2----4-7---
G|-5-5-5-5-5-5-|---|---------------------|--------------------------5-4-2--------------
 


Chords


A|-0-0----3-3-3-|----|-3-3-2-2-|----|-7-0-3-2-|-3-2-0-3-3-0----
E|-0-0----1-1-1-|----|-0-0-0-0-|----|-4-0-1-3-|-0-0-0-1-2-0----
C|-0-0----------|-x3-|-0-0-0-0-|-x3-|-4-0-0-2-|-0-0-0-0-2-0----
G|-2-2----2-2-2-|----|-0-0-0-0-|----|-4-2-2-0-|-0-0-2-2-2-2----


Roll With It

Intro riff & Vocal Line

A|-6-8-6-9-8-6-|-6-8-6-9----8-6--6-8-6-9--8-6----9-8-6-8-9-8-6-4-3-4-6-4-3-------------------3- E|-------------|-----------------------------------------------------------4------4------4----- C|-------------|----------------------------------------------------------------5------5---5--- G|-------------|-------------------------------------------------------------------------------
Guitar Riffs

A|-5-3-5-6-5-3-5-|-6----6-6-|-----|-3-4-6-4-3-4-6-3---|-6----6-6----6----6-6-
E|---------------|-8----8-8-|-----|-----------------4-|-8----8-8----8----8-8-
C|---------------|-8----8-8-|-3-3-|-------------------|-8----8-8----8----8-8-
G|---------------|----------|-----|-------------------|----------------------


Chords


A|-1----|-3-3----3-3-3-|----|-4-3-1-1-|-3-3----3-3-3-
E|-1----|-4-4----4-4-4-|----|-1-1-1-1-|-4-4----4-4-4-
C|-2-x8-|-3-3----3-3-3-|-x3-|-1-1-3-3-|-3-3----3-3-3-
G|-3----|-5-5----5-5-5-|----|-1-1-1-1-|-5-5----5-5-5-


Wonderwall

A|---------------------|-----|-----------------4-4---4------------4-------|-
E|-5-7---4-5-7---4-5---|-4-4-|-5-7---4-5-7---5-----7---5----5-5-7---7-5---|-
C|-----6-------6-----6-|-----|-----6-------6----------------------------6-|-
G|---------------------|-----|--------------------------------------------|-

A|---4-4--------------------4---|-4-5-7------4-4-5-4----4-----|-
E|-7-----5------5---5---5-5---5-|-------5-----------------7-5-|-
C|------------6---6---6---------|-----------------------------|-
G|------------------------------|-----------------------------|-

Vocal Line

A|----12-7----11h12p11--------------7--------7h9p7-|-----|----12-7----11h12p11-------
E|-10------------------12-------7h9------7h9-------|-----|-10------------------12----

C|------------------------13-----------------------|-x3--|------------------------13-
G|-------------------------------------------------|-----|---------------------------

A|---7---7---7---7---7---7---7-|---7h9p7---7h9p7---7h9p7---7h9p7-|-5-9-12-9-
E|-9---9---9---9---9---9---9---|-9-------9-------9-------9-------|-5-9-12-9-
C|-----------------------------|---------------------------------|-2-6-9--6-
G|-----------------------------|---------------------------------|----------

Chords

A|-5-5-2-2-0-0-2-2-|-----|-5-5-2-2-4-7-4-7-6----|-5-2-2-5-0-
E|-2-2-5-5-2-2-2-2-|-x2-—|-2-2-5-5-5-5-5-5-7———-|-2-2-3-2-0-
C|-2-2-4-4-1-1-1-1-|-----|-2-2-4-4-6-6-4-6-6----|-2-2-2-2-1-
G|-2-2-2-2-2-2-2-2-|-----|-2-2-2-2---------8----|-2-4-0-2-2-

MORE SONGS FROM THIS ALBUM?

Easy-to-print PDFs tabs for over 150 albums.

Easy-to-print PDFs tabs for over 150 albums.