Misery Business, Let The Flames Begin, When It Rains

Misery Business, Let The Flames Begin, When It Rains

Paramore Riot! full album arranged on 4 strings. This is Paramore ukulele style!

 

This is just some great rock music, with great hooks in almost every song and some amazing musicianship all around. It’s a monster of an album and was a total joy to arrange it on the ukulele.

This video is part of a project I’m working on. I’m learning to play my favourite albums on a ukulele. If you enjoyed it why not check out some other classic albums that I arranged like Blink 182Green Day or Twenty One Pilots.

Paramore Ukulele Tabs

Not sure how to read these? Check out my free course and you will be learning these ukulele tabs in no time.

Misery Business

A|--------------------------------------------------------
E|-4-4----4-6-8-6-8-3-3----3-3----4-4----4-6-8-6-8--------
C|----------------------------------------------------5-5-
G|--------------------------------------------------------

A|-4--------------------------------------------4--------------------------------------------- E|-4----9-8-6-4-4-6----4-6-8-6-4-6-8-6-4-4------4----4-6-8-9-8-6/4-4/6----6-8-9-8-6-8-9-8-6--- C|-5---------------------------------------5----5-------------------------------------------5- G|-6--------------------------------------------6---------------------------------------------
A|---------6---------------------------------------------------------------------- E|-6-8-8-8---8-6----4-6-8-6-4-6-8-6-4------8-8-8-8-8-8-8-8-9-8/6----4-8-6-4-4-4/6- C|------------------------------------5------------------------------------------- G|--------------------------------------------------------------------------------

Let The Flames Begin

A|---9---9---9---9---9---9---9---9----9----9----9----9----9----9----9----9-
E|-9---9---9---9-----------------------------------------------------------
C|-----------------9---9---9---9---11---11---11---11---11---11---11---11---
G|-------------------------------------------------------------------------


A|---------------------------------------------
E|-----5----------------------5----------------
C|----------4-4-----------------------4------6-
G|-4/6-------------6-4----4/6--------------6---


When It Rains

A|-----6------6------8p6---10--------6------6------------
E|-4/6------6---6--------6-------4/6------6---6----4-6-3-
C|-------------------------------------------------------
G|-------------------------------------------------------

MORE SONGS FROM THIS ALBUM?

Easy-to-print PDFs tabs for over 150 albums.

Easy-to-print PDFs tabs for over 150 albums.