Graceland, Diamonds On The Soles Of Her Shoes, Homeless

This week its time for the joyous and vibrant brilliance of Paul Simon and Graceland. A true classic that should in be in everyone’s music collection!

This video is part of a project I’m working on. I’m learning to play my favourite albums on a ukulele. If you enjoyed it why not check out some other classic albums that I arranged. Like Bob Marley or Jimi Hendrix.

Paul Simon Ukulele Tabs

Not sure how to read these? Check out this guide and you will be learning these ukulele tabs in no time.

graceland

A|-7-7----7-7----|---7-11-9-7---|-12-12p7---11-7-|-7-7----|-
E|-7-7----7-7----|-7----------7-|---------7------|-7-7----|-
C|---------------|--------------|----------------|---x----|-
G|---------------|--------------|----------------|--------|-

A|---7-11---5-9-12-12p7---|-5/7--------------------------------------------|- E|-7------5-------------7-|-5-7-7-5-4----4-5-7-7----0-0-9-9----0-9-7-5-4-0-|- C|------------------------|------------------------------------------------|- G|------------------------|------------------------------------------------|-

Diamonds Of The Soles Of Her Shoes

A|-------8p5------------|
E|-----5-----8p5-----8--|
C|---5-----------7p5----|
G|-5--------------------|

A|----------------------|-------------------------|
E|-----6-8----8-6p5-----|-5h6----5-6----5---------|
C|------------------7-5-|-5-7----5h7----5-5-7-5-7-|
G|-5h7------------------|-------------------------|

Homeless

A|-------9----6-|-------9p6-----|-9-9-8-6-----------|
E|-----6--------|-----6-----9p6-|---------9-7-6-----|
C|---6----------|---6-----------|---------------8-6-|
G|-6------------|-6-------------|-------------------|

A|--------------|---------------|-------------------| E|--------------|---------------|-------------------| C|-3/6----3-----|-3/6-3-1-------|-6-6-5-5-5-5-3-1-1-| G|--------------|---------------|-------------------|

More songs from this album?

Support the site by joining Learn The Licks and getting easy to print PDFs of 150+ albums

login

Badge Unlocked

Welcome To The Jungle

Complete your first lesson

Badge Unlocked

Start Me Up

Complete The Basics

The Basics

In this section, we will cover everything you need to know about starting to play the ukulele.