Ukulele Utopia

A Virtual Learning Experience

The Dark Side Of The Moon

Breathe, Money, Brain Damage

I, like many, others took a while to really get Pink Floyd. I knew some big tracks like Another Brick In The Wall and Money but I would not have called myself a fan by any means. Yet, I always saw their albums sitting high on the greatest albums of all time lists. What was the big deal? I need to give these lot a go I said to myself. I knew I needed to commit to them so I grabbed my headphones before bed, took myself in, hit play and closed my eyes.

 

wow….

 

A musical journey like nothing I had heard before. Every second of it is magical. Deep rumbling bass lines, fluid guitar licks and thunderous drumming. They all combine to create a dense overwhelming psychedelic unforgettable musical experience. This truly is one of the greatest albums of all time.

This video is part of a project I’m working on. I’m learning to play my favourite albums on a ukulele. If you enjoyed it why not check out some other classic albums that I arranged. Like Fleetwood Mac or Black Sabbath.

Pink Floyd Ukulele Tabs

Not sure how to read these? Check out this guide and you will be learning these ukulele tabs in no time.

Breathe

A |---2----2---------0--------|----2----7-----4-----4-----5-----4-----| 
E |---3--3---3---0-0-0--------|----3--7---7-------5-----5-----5-----3-|
C |---6----------1-1------2-1-|----6------------4-----4-----4-----4---|
G |-4------------2------2-----|--4------------------------------------|
 


A |-2--2-4--2--2-4--7-4-----------
E |-3--3-5--3--3-5------7-5-7-----
C |---------------------------6---
G |-------------------------------


Money

A |---------------------|--6-6----6-----|----------------------------------------
E |---8-----------------|--7-7----7-----|--3-3-----------------------------------
C |-----7---------------|--6-6----6-----|--------3-3-0---3-3-0-3-0-----0-3-5-3-0-
G |-5-----5-3p0-3-5-8---|--8-8----8-----|--------------------------0-3-----------

Brain Damage

A |-5-----|----------------------------5-5-5-5---5-2-5-2-5--4-4-4-4-4-4-4-----
E |-2-----|--2-2-2-2---2-2-2-1----x2---5-5-5-5---4-4-4-4-4--3-3-3-3-3-3-2-5-5-
C |-2-----|---------------------------------------------------------------4-2-
G |-2-----|-------------------------------------------------------------------

More songs from this album?

Support the site by joining Learn The Licks and getting easy to print PDFs of 150+ albums

login

Badge Unlocked

Welcome To The Jungle

Complete your first lesson

Badge Unlocked

Start Me Up

Complete The Basics

The Basics

In this section, we will cover everything you need to know about starting to play the ukulele.