Splite And Malice, Black Eyed, Heamoglobin

Splite And Malice, Black Eyed, Heamoglobin

One of those albums that has a special place in my heart. Black Market Music is very reminiscent of their first two albums but with much more charge and drive. An amazing bunch of powerful and poignant songs. I had to play it on the ukulele.

This video is part of a project I’m working on. I’m learning to play my favourite albums on a ukulele. If you enjoyed it why not check out some other classic albums that I arranged like Radiohead – OK ComputerRage Against The Machine – Debut Album or MUSE – Absolution

Placebo Ukulele Tabs

Not sure how to read these? Check out my free course and you will be learning these ukulele tabs in no time.

Splite And Malice

A|--------------8--------------8-------------8---8-----6-----
E|-9--------------9--------------8---------6-------9-9---9-6-
C|---10-10-8-10-----10-10-8-10-----8-8-8-5-------------------
G|---------------------------------------------6-------------

Black Eyed

A|-9----|-----------------------------------|-----------------------------------------------|-
E|-6----|-----------6----6-------6----------|-----------6----6-------6----------------------|-
C|-6----|-6-6-8p6-8--------8-6-8---8-6------|-6-6-8p6-8--------8-6-8---8-6-8-6----6-5-3-1-3-|-
G|-6----|------------------------------6----|-----------------------------------------------|-

A|-------------------------------------------------------|--------------------------------|- E|-----------6----6-------6--------------------6-7-9-7-6-|-----------6----6-------6-------|- C|-6-6-8p6-8--------8-6-8---8-6-8----------6-8-----------|-6-6-8p6-8--------8-6-8---8-6-6-|- G|--------------------------------6----6-8---------------|--------------------------------|-

Hemoglobin

A|---------------------------------------|---------------------------|-
E|-2-0-----2-0---------------------------|-2-0-----2-4---2-0---------|-
C|-----3-1-----3----3-3-3-3-3-3----1-1-3-|-----3-1-----3-----3-1-1-1-|-
G|---------------------------------------|---------------------------|-

MORE SONGS FROM THIS ALBUM?

Easy-to-print PDFs tabs for over 150 albums.

Easy-to-print PDFs tabs for over 150 albums.