Radio Ga Ga, Breakthru, Hammer To Fall

Radio Ga Ga, Breakthru, Hammer To Fall

What’s to be said about Queen that hasn’t been said before? It crazy for a band to be able to release two greatest hits albums and not repeat any songs. That’s a testament to how brilliant they were at songwriting. I choose to do their greatest hits albums because I was still in my dads sack when they were releasing studio albums, so I never got to soak them in. Queen could possibly be some of the first music I ever heard. Both my parents are massive fans and this greatest hits record was a staple in the car. I say this with little doubt, Queen are one of the greatest bands ever.

This video is part of a project I’m working on. I’m learning to play my favourite albums on a ukulele. If you enjoyed it why not check out some other classic albums that I arranged. Like Queen – Greatest Hits 1 or The Clash – London Calling. 

Queen Ukulele Tabs

Not sure how to read these? Check out my free course and you will be learning these ukulele tabs in no time.

Radio Ga Ga

A |-----------------------------------5-3-3--1-0-0-
E |-5-6-5----5-6-5----3-5-3----3-5-3--6-5-5--3-1-1-
C |-5-5-5--0-5-5-5--0-5-5-5--0-5-5-5---------------
G |------------------------------------------------

Breakthrough

A |-----------------------------------------------------------------
E |---5---6---5-------5---6---5-------5---6---5---6---5---6---5-----
C |-5---5---5---5---5---5---5---5---5---5---5---5---5---5---5---5---
G |-----------------------------------------------------------------

Hammer To Fall

A |-0-----0-0-----0-0-----------0-- 
E |-0-2---0-0-2---0-0-2---4-4-4-0--
C |-1-2---1-1-2---1-1-2---4-4-4-1--
G |-2-2---2-2-2---2-2-2---4-4-4-2--
 


A |-4-7-7-----4-7-9-7---4-7-9-4---------------12-9-12---7-4-9---4-7-7-7-7-7-4-----
E |---------7-------------------7-5-7-5-7-9-----------------------------------7-5-
C |-------------------------------------------------------------------------------
G |-------------------------------------------------------------------------------
 


A |---------------------------------------------------------------------------
E |-5-5-4-4-2-2-0-----------------------5-5-4-4-2-2-0-------------------------
C |-----------------4-4-4-4-4-2-1---1-------------------4-4-4-4-4-4-2-1-------
G |-------------------------------4-------------------------------------4-2---


MORE SONGS FROM THIS ALBUM?

Easy-to-print PDFs tabs for over 150 albums.

Easy-to-print PDFs tabs for over 150 albums.