Ukulele Utopia

A Virtual Learning Experience

Automatic For The People

Drive, Man On The Moon, Find The River

Did anyone have an old school iPod? the first one I got was a green 32gb mini and OMG did I love that thing. I would be so particular with my music library on it too. I would spend hours making sure all the titles, genres, album covers and even date of release was correct.
 
One of my favourite features was the 25 most played songs playlist that would automatically update. Why am i telling you this? Some of the songs remained on it for the entire time I had it was ‘The Sidewinder Sleeps Tonite’ and ‘New Orleans Instrumental No. 1′.
 
I loved both them growing up, to be fair, I love this entire album but them two, in particular, get me in the right way. Youll notice that half of the video is made up of them haha.

This video is part of a project I’m working on. I’m learning to play my favourite albums on a ukulele. If you enjoyed it why not check out some other classic albums that I arranged. Like Joy DivisionNirvana or Pearl Jam.

R.E.M Ukulele Tabs

Not sure how to read these? Check out this guide and you will be learning these ukulele tabs in no time.

Drive

A |-----8--------8-----------------|------8-------8-------------| 
E |---------10-----10--------------|----------10-----10---------|
C |---9--------9------9------------|----9-------9-------9-------|
G |-7---------------------10p9h10--|--7---------------------2-5-|


Man On The Moon

A |-----------------------------------------------|
E |-----3-3---5-----5-5---7-----3-3---------3-3---|
C |-0-----------2-----------0-----------0---------|
G |---------------------------------0-----------0-|

A |-3---3-3---3---5---5-5---5--3---3-3---3---3---3-3--3--| E |-0---0-0---0---2---2-2---2--0---0-0---0---0---0-0--0--| C |-0---0-0---0---2---2-2---2--0---0-0---0---0---0-0--0--| G |-0---0-0---0---2---2-2---2--0---0-0---0---0---0-0--0--|
A |---7-------9-5-----7-3---|
E |-8---8---5-------3-------|
C |-------------------------|
G |-------------------------|

Find The River

A |---------9-----------9---|----|----------------------------3-----|
E |-----10--10------10--10--|----|------------------5-3-1-3-5---5---|
C |---9-----9-----7-----7---|-x2-|--7-6-4---6-2---------------------|
G |-7-----------9-----------|----|--------------2-------------------|

More songs from this album?

Support the site by joining Learn The Licks and getting easy to print PDFs of 150+ albums

login

Badge Unlocked

Welcome To The Jungle

Complete your first lesson

Badge Unlocked

Start Me Up

Complete The Basics

The Basics

In this section, we will cover everything you need to know about starting to play the ukulele.