Ukulele Utopia

A Virtual Learning Experience

A Moon Shaped Pool

Desert Island Disc, The Numbers, True Love Waits

I simply love this album. Radiohead have made some of the best albums of all time and its almost like they can’t make a bad record. A Moon Shaped Pool is beautiful.

This video is part of a project I’m working on. I’m learning to play my favorite albums on a ukulele. If you enjoyed it why not check out some other classic albums that I arranged. Like OK Computer and Kid A.

Radiohead Ukulele Tabs

Not sure how to read these? Check out this guide and you will be learning these ukulele tabs in no time.

Desert Island Disc

The first part of this song is a finer picking section. The easiest way to play it is to put your finger across the 7th fret and use your pinky to hit the 10th, 9th and 8th.

A|-10-----9-----7-----8-10----------------------------------------------------------------------
E|----7-----7-----7------------------5h6p5-----------------------------------------4-4-4-4-4-3-3
C|------7-----7-----7---------7-7----------7-5/7----7-7----2-0---0-2----0---0------3-5-3-3-3-2-2
G|-7------7-----7-------------7-7-------------------7-7--------4----------4---4-----------------

The Numbers

This riff sounds bright and full with the open strings. It especially works with a low G string. If you have one, give it a go.

A|----------------------3-----------------------|------------------------------------ 
E|------3-3-3-3----5----3--------------------x2-|-5-3--------------------------------
C|-0----3-3-3-2----5----0--------0-2------------|-----5-3----------------------------
G|-0----3-3-3-3----5----0----0-3-----0-3-0------|---------5----3-5-3-5-3-5-5-3-5-3-5-


True Love Waits

A lovely piano motif that sounds great on the ukulele. Listen to the song to get the timing right.

A|-------2-------------2-
E|---3----------3--------
C|-0---0---0---------0---
G|-----------------------

More songs from this album?

Support the site by joining Learn The Licks and getting easy to print PDFs of 150+ albums

login

Badge Unlocked

Welcome To The Jungle

Complete your first lesson

Badge Unlocked

Start Me Up

Complete The Basics

The Basics

In this section, we will cover everything you need to know about starting to play the ukulele.