All I Need, Jigsaw falling into place, Bodysnatchers

All I Need, Jigsaw falling into place, Bodysnatchers

I love Radiohead. I’ll get that out of the way so you know. In Rainbows is an album that has 0 filler tracks. Each one was meant to be there. It’s fantastic, sounds nothing like Radiohead have ever recorded, yet is still recognisable as Radiohead from the first 5 seconds of mashed-up drums that introduce ’15 Step’. It’s lush yet sparse. The strings (and there are a lot of strings on this record) are beautiful – the arrangements really show off Jonny Greenwood’s classical leanings – and Thom’s voice is amazing, despite years of touring and knocking on 40’s door at this point. Every time I hear the songs, I pick up something new. I highly recommend you give it a listen on headphones at some point – it’s a real trip.

This video is part of a project I’m working on. I’m learning to play my favourite albums on a ukulele. If you enjoyed it why not check out some other classic albums that I arranged like Arcade Fire, Placebo or Radiohead – The Bends

Radiohead Ukulele Tabs

Not sure how to read these? Check out my free course and you will be learning these ukulele tabs in no time.

all i need

A|-------------2------5-|-------------2------5-|- 
E|------3--------3------|------3--------3------|-
C|-0------4-------------|-0------4-------------|-
G|----------------------|----------------------|-


Bodysnatchers

Riff 1

A|--5-----------------3--5-----5--5--5--5-- E|--2--------2--3--5-----------2--2--2--2-- C|--2--2--4--------------------2--2--2--2-- G|--2--------------------------2--2--2--2--
Riff 2

A|--------------------------------------------------------
E|--------5--------------5--------------8--------------7--
C|--6--7-----------6--7-----------6--7-----------6--7-----
G|--------------------------------------------------------


Jigsaw falling into place

A|---5-----5-----5-----5-----5-----|---5-----5-----5-----5-----5-----|---4-----4-----4-----4-----4-----|-
E|-----7-----7-----7-----7-----7---|-----7-----7-----7-----7-----7---|-----6-----6-----6-----6-----6---|-
C|-------4-----4-----4-----4-----4-|-------4-----4-----4-----4-----4-|-------3-----3-----3-----3-----3-|-
G|-4-------------------------------|-4-------------------------------|-3-------------------------------|-

A|---4-----4---------2-----2-----2-|---2-----2-----2---5-----5-----5-|---2-----2-----2---5-----5-----5-|- E|-----2-----2---2-----2-----2-----|-----3-----3---------3-----3-----|-----3-----3---------3-----3-----|- C|-------2-----2---------2-----2---|-------2-----2---------2-----2---|-------2-----2---------2-----2---|- G|-2---------------2---------------|-0---------------0---------------|-0---------------0---------------|-

MORE SONGS FROM THIS ALBUM?

Easy-to-print PDFs tabs for over 150 albums.

Easy-to-print PDFs tabs for over 150 albums.