Everything In Its Place, National Anthem, Idioteque

Everything In Its Place, National Anthem, Idioteque

Radiohead Kid A full album arranged for four strings! This is Radiohead ukulele style! It’s fair enough to say, I’m a pretty HUGE Radiohead fan. This is now the 4th album I have arranged on the ukulele by them. I must say though, I never really appreciated Kid A as much as the other albums until I picked it apart and figured out how to play it on the uke. The melodies really seem to shine when i stripped them down.

This video is part of a project I’m working on. I’m learning to play my favourite albums on a ukulele. If you enjoyed it why not check out some other classic albums that I arranged like The BendsIn Rainbows or OK Computer.

Radiohead Ukulele Tabs

Not sure how to read these? Check out my free course and you will be learning these ukulele tabs in no time.

Everything In Its Place

A|--3-----------3-----3--3-----4-----4-----3-----3-----|
E|-----4--3-----3-----3--3-----1-----1-----3-----3-----|
C|--------------4-----4--4-----1-----1-----3-----3-----|
G|-----------5--5-----5--5-----1-----1-----3-----3-----|

National Anthem

A|---------------------------------------------|
E|-2-------2---------1-------1---------0-------|
C|---2-2-2---2-2-2-2---2-2-2---2-2-2-2---2-2-2-|
G|---------------------------------------------|

Idioteque

A|--6--5--5--5--|--6--5--5--3--6--5-------------------------------------------------------------
E|--3--6--6--6--|--------------------6--8-----8/10--10--10--10--10--10--11--11--11--11--11--11--
C|--2--3--7--5--|-------------------------------------------------------------------------------
G|--------------|-------------------------------------------------------------------------------

A|--6--5--5--3--6--5---------------------------------------------------------------- E|--------------------8\10--10--10--10--10--10--10--10--11--11--11--11--11--11--11-- C|---------------------------------------------------------------------------------- G|----------------------------------------------------------------------------------
A|---------------------------------------------------------------------------------- E|--11--10--6--8--11--10--6--8--10--10--10--10--10--10--10--11--11--11--11--11--11-- C|---------------------------------------------------------------------------------- G|----------------------------------------------------------------------------------

A|----------------------------------------------8------------------8------------------ E|--11--10--8--8--11--10--8--6--10--10--10--10-----11--11--11--11-----11--11--11--11-- C|------------------------------------------------------------------------------------ G|------------------------------------------------------------------------------------
A|--13-----15--12--13-----13--13--13--12--10--10-----8-----6-----5--6--5--6--
E|---------------------------------------------------------------------------
C|---------------------------------------------------------------------------
G|---------------------------------------------------------------------------


MORE SONGS FROM THIS ALBUM?

Easy-to-print PDFs tabs for over 150 albums.

Easy-to-print PDFs tabs for over 150 albums.