Airbag, Karma Police, No Suprises

Airbag, Karma Police, No Suprises

OK Computer is a work of art comprised of progressive music, brimming with atmosphere and depth. It comes as “No Surprise” to me that it is regularly voted as one of the greatest albums ever made. Whilst dissecting it and transforming it into its most minimal form, the simple beauty became ever clearer.

This video is part of my Top 50 Albums on a ukulele project, if you enjoyed it why not check out some other classic albums that I arranged for ukulele. Like Muse – AbsolutionRage Against The Machine – Debut Album or Pearl Jam – Ten.

Radiohead Ukulele Tabs

Not sure how to read these? Check out my free course and you will be learning these ukulele tabs in no time.

airbag

A|-----------------------4-7-8-----------------4----|
E|-----8-7-9-5-----8-7-5-------8-7-9-5-----8-7-5----|
C|-4/5---------4-5---------------------4-5-----4----|
G|--------------------------------------------------|

A|-7-5-4-5-4-7-5-4-5-4-7-5-4-5-| Repeated
E|-----------------------------|
C|-----------------------------|
G|-----------------------------|

Karma Police

A|---0-------2---2---|---0-------2---2---|---0-------2---3---|---0---0---2-------|---
E|---0---2---3---3---|---0---1---3---3---|---0---2---3---3---|---0---0---2---2---|---
C|---0---2---4---2---|---0---0---4---2---|---0---2---2---2---|---0---0---2---2---|---
G|---2---2---4---0---|---2---2---4---0---|---2---2-----------|---2---2---4---2---|---

A|----------|---7-----|----------|---7-5------------------------|- E|-8-10-8-7-|-0---7-5-|-8-10-8-7-|-0-----8-7-5-8-10-8-7-3-8-7-5-|- C|----------|---------|----------|------------------------------|- G|----------|---------|----------|------------------------------|-
A|-----3---|-----0---|-----2---|-----1---|- E|---0---0-|---2---2-|---3---3-|---2---2-|- C|-0-------|-2-------|-2-------|-1-------|- G|---------|---------|---------|---------|- x 4
A|-----------|-----------|-----------|-----2----0---|-2h3p2----------------------- E|-----------|-----------|-----------|------------3-|-------3-5-3-2-3-2----------- C|-0-0-2-6-7-|-0-0-2-6-7-|-0-0-2-6-7-|-2-2----------|-------------------4-2-4-4/6- G|-----------|-----------|-----------|--------------|-----------------------------
A|---2-------2-------2-------2--- E|---2---2---3---2---3---2---3--- C|---2---2---2---2---2---2---4--- G|---4---2-------2-------2-------
A|-9-9-5-7-9-2----10-9-0-2----10-9-0-2-5-2-
E|-----------------------------------------
C|-----------------------------------------
G|-----------------------------------------

No Suprises

A|-12----12----12----------------
E|----13----13----13-------13-15-
C|-------------------10-13-------
G|-------------------------------

A|-0--------0--------0----------- E|------------------------------- C|---0----0---0----0---0----0/10- G|-------------------------------

Not sure how to read these? Check out my free course and you will be learning these ukulele tabs in no time.

MORE SONGS FROM THIS ALBUM?

Easy-to-print PDFs tabs for over 150 albums.

Easy-to-print PDFs tabs for over 150 albums.