Bloom, Give Up The Ghost

Bloom, Give Up The Ghost

I absolutely love arranging this band on the ukulele. The grooves and rhythms they create are just ace. Garnished with beautiful chord progressions and heavy harmonies. They truly are on the greatest bands in the history of music.

This video is part of a project I’m working on. I’m learning to play my favorite albums on a ukulele. If you enjoyed it why not check out some other classic albums that I arranged. Like OK Computer or The Bends.

Radiohead Ukulele Tabs

Not sure how to read these? Check out my free course and you will be learning these ukulele tabs in no time.

Bloom

A |-----7-5-------------|--7/5------| 
E |-5-5-----7-7h8p7-----|--7/5------|
C |------------------x4-|------x4---|
G |---------------------|-----------|


Give Up The Ghost

A |--0---x-0-x-0-x-0--0---x-0-x-0-x-0-
E |--2---x-2-x-0-x-3--0---x-0-x-0-x-0-
C |--2---x-2-x-2-x-2--0---x-0-x-2-x-4-
G |--2-2-x-2-x-2-x-2--2-2-x-2-x-2-x-2-

A |-----------5-----------------5-----------------0-----------------0------- E |-----2---2---2---2-----2---2---2---2-----0---0---0---0-----0---0---0---0- C |-------2-------2---------2-------2---------0-------0---------0-------0--- G |-2-2---------------2-2---------------2-2---------------2-2---------------
A |---9---9---9---9---9---9---9---9---9---9-----3---3---3---3---3---3---3---3-
E |-5---5---5---5---5---5---5---5---5---5-----5---5---5---5---5---5---5---5---
C |---------------------------------------------------------------------------
G |---------------------------------------------------------------------------


MORE SONGS FROM THIS ALBUM?

Easy-to-print PDFs tabs for over 150 albums.

Easy-to-print PDFs tabs for over 150 albums.