Mein Hertz Bren, Sonne, Fruer Frei

Mein Hertz Bren, Sonne, Fruer Frei

Great music. An acquired taste but if you like it you’ll love it. Not a mediocre track on here. Awesome band at their very best. Goosebumps at MEGA volume.

This video is part of a project I’m working on. I’m learning to play my favourite albums on a ukulele. If you enjoyed it why not check out some other classic albums that I arranged. Like Metallica or Korn.

Rammstein Ukulele Tabs

Not sure how to read these? Check out my free course and you will be learning these ukulele tabs in no time.

Mein Hertz Bren

A|-------------------------------------------------------------------------------- 
E|------------------------------4-------------------------------------------------
C|-4-3----------4-3----6-4-3------6-4-3----4-3----------4-3----6-4-3------6-4-3---
G|-----6----5-6--------------------------------6----5-6-----------------6-------6-

Sonne

A|--------------------------------------------------------------
E|---4---4-3--------4---4--------4---4-3--------4---4-3-3-3-3-3-
C|-2---2-----2----2---2---2----2---2-----2----2---2-------------
G|--------------------------------------------------------------

Fruer Frei

A|---------------0-1-------1---5-------------------------------0--------------------------
E|-2-3-------3-------1---1---1-----3---5-------6-5-3---3---3---3--------------------------
C|-----2---2---2-----------------2---2-----2---------5---2---2-2--------------------------
G|-------0-------------3-----------------2---2-----------------0----0h1-0h1-0h1-0h1-3-3-3-

MORE SONGS FROM THIS ALBUM?

Easy-to-print PDFs tabs for over 150 albums.

Easy-to-print PDFs tabs for over 150 albums.