Ukulele Utopia

A Virtual Learning Experience

By The Way

Universally Speaking, Dosed, Zephyr Song

Red Hot Chili Peppers By The Way full album arranged on four strings. Today we are learning the Red Hot Chili Peppers Ukulele TABs for Universally Speaking, Dosed and The Zephyr Song.

 

This has to be one of the most underrated albums of my generation. To this day it oozes with style and a mastery of lyrics and music. A band at the top of their game. As cool today as it was years back. Even the videos are a work of art. Funny, cool, fresh, artistic and trailblazing.

This video is part of a project I’m working on. I’m learning to play my favourite albums on a ukulele. If you enjoyed it why not check out some other classic albums that I arranged like Californication or Pearl Jam.

Red Hot Chili Peppers Ukulele Tabs

Not sure how to read these? Check out this guide and you will be learning these ukulele tabs in no time.

Universally Speaking

A|-5----2----|------------------------------------------------9-7--------------
E|-2----0----|-10-10-9-10-10-9-10-10-9-10---x3----10-10-10-10-----10-9-9-10----
C|-2----2----|-----------------------------------------------------------------
G|-2----0----|-----------------------------------------------------------------

Dosed

A|-7-----7-----7-----7-----5-----5-----2-----2-|--------------------|-
E|-----7-----7-----7-----5-----5-----3-----3---|--------------------|-
C|---7-----7-----7-----6-----6-----4-----4-----|--------------------|-
G|---------------------------------------------|----4-4-7-4----4----|-

A|-2----3----5----5----7-9-10----9-9h10p9/7-|-2-2----3----2-2----0-2-2------ E|-3-----------------------10---------------|-3------------------------3---- C|-2-----------------------11---------------|-2----------------------------- G|-0----------------------------------------|-0-----------------------------

Zephyr Song

A|-----10--------8--------2--------3-|-
E|---8---------7--------3--------5---|-
C|-9---------7--------4--------5-----|-
G|-----------------------------------|-

A|-----7---10-8-7--------5---8-7-5--------2---5-3-2--------3---5h7p5----- E|---8-----------------7----------------3----------------5-----------8-7- C|-9-----9-----------7-----7----------4-----4----------5-----5----------- G|-----------------------------------------------------------------------

More songs from this album?

Support the site by joining Learn The Licks and getting easy to print PDFs of 150+ albums

login

Badge Unlocked

Welcome To The Jungle

Complete your first lesson

Badge Unlocked

Start Me Up

Complete The Basics

The Basics

In this section, we will cover everything you need to know about starting to play the ukulele.