Ukulele Utopia

A Virtual Learning Experience

The Getaway

The Getaway, Sick Love, Dreams Of A Samurai

This video is dedicated to a very dedicated person. You know who you are. For as long as I remember, they have been very patiently sending me weekly comments requesting this album. I have to admit, I had not given it my full attention before they mentioned it. I saw RHCP live at Leeds Festival in 2016 and unfortunately, I was pretty disappointed with their performance. It seemed to me like Josh was trying so hard to like John and it just put me off. So I was very reluctant to check out their new music. BIG MISTAKE, this album is fantastic. The guitar work from Josh is actually what makes it so great for me. It was a pleasure to add this to the Eat My Uke album collection.

This video is part of a project I’m working on. I’m learning to play my favourite albums on a ukulele. If you enjoyed it why not check out some other classic albums that I arranged. Like By The Way or Californication.

Red Hot Chili Peppers Ukulele Tabs

Not sure how to read these? Check out this guide and you will be learning these ukulele tabs in no time.

The Getaway

A|--------------------------------|------|-----------------|-8----10-7----8p7-3----3-5-5-3-5- 
E|--------------------------------|------|-----------------|---------------------------------
A|-7-9-9-9p7-9-9----9-9-7-9-9-9-9-|---x4-|-4----7----7/4/2-|---------------------------------
G|--------------------------------|------|-----------------|---------------------------------


Sick Love

A|-0----------3--------5----5-5h7p5---7----2----1/2----3-3-3-3-2-2-2-2-|-
E|-0--------3----------5------------7------2----1/2----0-------0-------|-
C|-0----2/4--------4/6---------------------2----1/2----0-------0-------|-
G|-2---------------------------------------0-----------0-------0-------|-

A|-0----------3--------5----5-5h7p5--------2-----2-----2-----|- E|-0--------3----------5-----------------3---3-----3-----3---|- C|-0----2/4--------4/6-----------------4-------4-----4-----4-|- G|-2---------------------------------------------------------|-

Dreams Of A Samurai

A|-----------8-7--------------------------------8-7-------------------
E|---------8-----8----------------------------8-----8-------------8---
C|-----7-9---------7-7-7-5-7-9-7-5--------7-9---------7-7-7-5-7-9---7-
G|-7-7--------------------------------7-7-----------------------------

More songs from this album?

Support the site by joining Learn The Licks and getting easy to print PDFs of 150+ albums

login

Badge Unlocked

Welcome To The Jungle

Complete your first lesson

Badge Unlocked

Start Me Up

Complete The Basics

The Basics

In this section, we will cover everything you need to know about starting to play the ukulele.