Ukulele Utopia

A Virtual Learning Experience

Siamease Dream

Cherub Rock, Today, Silverfuck

From quiet, transcending beginnings to crashing guitars, this album showpieces fantastic musical ability and inspiring lyrics that come from the heart. Featuring some of the best songs the Pumpkins have done, I love this album.

This video is part of a project I’m working on. I’m learning to play my favourite albums on a ukulele. If you enjoyed it why not check out some other classic albums that I arranged. Like Placebo or Pearl Jam.

Smashing Pumpkins Ukulele Tabs

Not sure how to read these? Check out this guide and you will be learning these ukulele tabs in no time.

cherub rock

A |---7-7---7-7---7---7-7---7-7-7-|---7-7---7-7---7---7-7---7-7-7-|
E |-0-----0-----0---------0-------|-0-----0-----0---------0-------|
C |-------------------------------|-------------------------------| x2
G |-------------------------------|-------------------------------|

A |-------------------------------|-7-7-7-7-7-7-7-7-7-7-7-7-7-7-7-|
E |-------------------------------|-4-4-4-4-4-4-4-4-4-4-4-4-4-4-4-|
C |-4-4-4-4-4-4-4-4-4-4-4-4-4-4-4-|-4-4-4-4-4-4-4-4-4-4-4-4-4-4-4-|
G |-------------------------------|-4-4-4-4-4-4-4-4-4-4-4-4-4-4-4-|

A |---7-7---7-7---7---7-7---7-7-7-|---7-7---7-7---7---7-7---7-7-7-|
E |-0-----0-----0---------0-------|-0-----0-----0---------0-------|
C |-------------------------------|-------------------------------| x2
G |-------------------------------|-------------------------------|

A |----10-10---10-10--10-10--10-10--10-10-10-|----14-14---14-14--14-14--14-14--14-14-14-|
E |--0-------0------0-------------0----------|--0-------0------0-------------0----------|
C |------------------------------------------|------------------------------------------|
G |------------------------------------------|------------------------------------------|

A |-------------------------------------------------|
E |--------4h5p4--------------x2--------------------|
C |--6p4-4-------8--8-8-6p4-------2-2-2/9-9-9-9-9-9-|
G |-------------------------------------------------|

Today

A|--5-----7-----5-----9p5-----|
E|-----5-----5-----5-------5--|
C|----------------------------|
G|----------------------------|

Silverfuck

A|-5-----5---------|-5-----5---------|-
E|---------0-0-0-0-|---------0-0-0-0-|-
C|---2-2-----------|---2-2-----------|-
G|-----------------|-----------------|

A|---------------------5-5-5-5-------5-5-5-5---- E|-2-2-3-2-5-7-7-------7-7-7-7-------7-7-7-7---- C|-2-2-2-2-2-2-2-------6-6-6-6-------6-6-6-6---- G|----------------------------------------------

More songs from this album?

Support the site by joining Learn The Licks and getting easy to print PDFs of 150+ albums

login

Badge Unlocked

Welcome To The Jungle

Complete your first lesson

Badge Unlocked

Start Me Up

Complete The Basics

The Basics

In this section, we will cover everything you need to know about starting to play the ukulele.