I Wanna Be Adored, This Is The One, Made Of Stone

I Wanna Be Adored, This Is The One, Made Of Stone

It’s a bold claim to call an album perfect, but fuck it, the stone roses debut album is perfect. Every second of it is magical. Mani’s deep bass lines, John Squires fluid guitar licks and Reni’s outstanding drumming create a dense overwhelming psychedelic unforgettable musical experience.

Stone Roses Ukulele Tabs

Not sure how to read these? Check out my free course and you will be learning these ukulele tabs in no time.

i wanna be adored

Intro (Palm Muted)

A|---------5-5-5-5---------5h7p5-7-----7-----7/9-----7/9-7-5---------|
E|-3-3-3-3---------3-3-3-3---------0-0---0-0-----0-0---------7-------|
C|-------------------------------------------------------------------|
G|-------------------------------------------------------------------|

Intro solo

A|-9-12-14-12-9-12-9-7----7-----------------|
E|---------------------10---10-7-5-7-10-7-5-|
C|------------------------------------------|
G|------------------------------------------|

A|-14-----------------------------------------------------|
E|----12-10----14---------10-14-----------10------10------|
C|----------11----11-9-11----------9-9-11----9-11----11-9-|
G|--------------------------------------------------------|

Main Riff

A|---7---5-7-5-7-9-7-5-7-5-7-5/7--     --14p12-14p12-14p12-------------------------|
E|-7---7-------------------------- x2  --------------------14p12-14p12-------------|
C|-------------------------------- --------------------------------14-11-16-14-|
G|--------------------------------     --------------------------------------------|

made of stone

A|---5-----5-------|---4-----4-----4-|---3-----3-------|---2-----2-----------|
E|-----3-----3---3-|-----3-----3-----|-----3-----3---3-|-----3-----3-2-2h3p2-|
C|-4-----4-----4---|-4-----4-----4---|-4-----4-----4---|-4-----4-------------|
G|-----------------|-----------------|-----------------|---------------------|

this is the one

Intro Riff

A|---7-----7---7---7---7--------7-7- E|-7---7-5---4---5---4---5-4----4-4- C|------------------------------4-4- G|----------------------------------
Bass Line

A|-------------------------------7-6---------------------9-7-6-7-7-7-7-9-7-6- E|---------------4-5-7-7-7-7-7-7-----7-5-5-5-5-7-7-7-7-7--------------------- C|-4-4-4-4-4-4-4------------------------------------------------------------- G|---------------------------------------------------------------------------
Guitar Part

A|---7-----7-----7-----7-----------|----------------------------------- E|-----5-4---5-4---5-4---5---4-----|-7-7---7-12-7-7-11-7-7-9-7-7-9-7-7- C|-4-----------------------4---6-4-|-----6----------------------------- G|---------------------------------|-----------------------------------
A|---7---9-7-----7-11-9-7-------|-4-4-4-7---- E|-5---5-----5h7----------11h12-|-5-5-5-4---- C|------------------------------|-4-4-4-4---- G|------------------------------|-4-4-4-4----

MORE SONGS FROM THIS ALBUM?

Easy-to-print PDFs tabs for over 150 albums.

Easy-to-print PDFs tabs for over 150 albums.