Take It Easy, Lazy, All Around

Take It Easy, Lazy, All Around

My first encounter with this band was when I heard Grandpops Uke by Forrest, he’s one-half of this band. The colorful licks, soulful vocals, hard beats and just all-around chillness of this album won me over. Hope ya dig it

This video is part of a project I’m working on. I’m learning to play my favourite albums on a ukulele. If you enjoyed it why not check out some other classic albums that I arranged. Like Kendrick Lamar or Harry Styles.

Surfaces Ukulele Tabs

Not sure how to read these? Check out my free course and you will be learning these ukulele tabs in no time.

Take It Easy

A |-6-6--9--9---1-1-------------------------------------
E |-6-6--9--9---2-2---2-1-------------------------------
C |-6-6--10-10--1-1-------3-1-3-------------------------
G |-----------------------------3---1-1--3-3--4-4/6-4-3-

A |---------------------------------------------------------| E |--11-9---6/4---6-7-6-7-7/9-6-2---6/4-1-2-------4/6-4-2---| C |-----------------------------------------3-1-------------| G |---------------------------------------------------------|

Lazy

A |-5-5-5-5---3-3-3-3-------3-------5-------2-------4-|
E |-3-3-3-3---3-3-3-3-----1---1---3---3---4---4---6---|
C |-3-3-3-3---3-3-3-3---3-------5-------3-------5-----|
G |-3-3-3-3---1-1-1-1---------------------------------|

A |-6/8-6-------------6-------------6---6-8--10-8--10-8-------| E |-------6/8-6---6-8---8-------6-8---8------------------11-8-| C |-------------------------x3--------------------------------| G |-----------------------------------------------------------|

All Around

A |----10------10---3--------------
E |-8--8---10--10---3--6-4-3---3---
C |-8--8---10--10---3--------5---3-  x2
G |-8------10-------3--------------

MORE SONGS FROM THIS ALBUM?

Easy-to-print PDFs tabs for over 150 albums.

Easy-to-print PDFs tabs for over 150 albums.

Badge Unlocked

Welcome To The Jungle

Complete your first lesson

Badge Unlocked

Start Me Up

Complete The Basics

The Basics

In this section, we will cover everything you need to know about starting to play the ukulele.