Ukulele Utopia

A Virtual Learning Experience

Mezmerize

B.Y.O.B, Radio/Video, Sad Statue

Without a doubt, these guys are one of the greatest bands I have seen perform live. It was just after they released this album and every song sounded massive! This was always going to be a joy to play on the ukulele as Daron Malakian guitar work is so melodic!

This video is part of a project I’m working on. I’m learning to play my favourite albums on a ukulele. If you enjoyed it why not check out some other classic albums that I arranged. Like Black Sabbath or Korn.

System Of A Down Ukulele Tabs

Not sure how to read these? Check out this guide and you will be learning these ukulele tabs in no time.

b.y.o.b

A|----------------------------------------------6-5-3-
E|---------------------------------6-6----3-6-3-------
C|-2-3-0----0----0-2-3-5-3-2-0-2-0--------------------
G|----------------------------------------------------

A|---------------------------------------------- E|---------------------------------------------- C|-2-3-0----0-0-0----0-5-7-8-7-5-7-5-3-5-2-0---- G|----------------------------------------------

radio/video

A|---------------------------------------------------------------------
E|---5--------7--------9--------9h10p9-7----7---7-7----7h9-7p5---5-5-5-
C|-6---6----8---8----9---9-9------------------8----------------6-------
G|---------------------------------------------------------------------

sad statue

A|-----3---4---3--------3---2---3---------------------------3---2---3------ 
E|---1---1---1--------1---1---1----------3---4---3--------1---1---1---1----
C|-1----------------0----------------0-0---0---0---0----1------------------
G|-------------------------------------------------------------------------

More songs from this album?

Support the site by joining Learn The Licks and getting easy to print PDFs of 150+ albums

login

Badge Unlocked

Welcome To The Jungle

Complete your first lesson

Badge Unlocked

Start Me Up

Complete The Basics

The Basics

In this section, we will cover everything you need to know about starting to play the ukulele.