Prison Song, Needles, Chop Suey

Prison Song, Needles, Chop Suey

Another album from my youth, i remember Chop Suey been blasted on Kerrang TV like crazy. Then they released toxicity single and shit really hit the fan. Of i go to HMV to get the album and i pull out my CD Walkman (2001) on the bus home. My ears are immediately melted when i hear that opening “DUHMM”….”DUM DUM DUM DUM DUM DUM DUM DUM DUM DUM DUM D D D D D D!!!!!!!” of Prison Song and it quickly becomes one of the albums of my childhood.

This video is part of a project I’m working on. I’m learning to play my favorite albums on a ukulele. If you enjoyed it why not check out some other classic albums that I arranged. Like Korn or Smashing Pumpkins.

System Of A Down Ukulele Tabs

Not sure how to read these? Check out my free course and you will be learning these ukulele tabs in no time.

Prison Song

A |----------------------------------------- 
E |-----------------------------------------
C |-0--0-1-3-1-0-1-3-1-0-1-3-1-0-1-8-8-8-8--
G |-0--0-1-3-1-0-1-3-1-0-1-3-1-0-1-8-8-8-8--


Needles

A |---4-3---4---------------|--3-2---3---------------|
E |-------------------------|------------------------|
C |-5-----5---5-1-5-4-1-5-0-|4-----4---4-0-5-4-0-5-0-|
G |-------------------------|------------------------|

Chop Suey

A |-1--3--0--0--|-------------------------------------------------
E |-3--5--5--3--|-6---6---6---8---8---8---5---5---5---3---3---3---
C |-2--0--5--3--|---7---7---7---9---9---9---5---5---5---3---3---3-
G |-0-----------|-------------------------------------------------

MORE SONGS FROM THIS ALBUM?

Easy-to-print PDFs tabs for over 150 albums.

Easy-to-print PDFs tabs for over 150 albums.