Let It Happen, Cause Im Your Man, The Less I Know The Better

Let It Happen, Cause Im Your Man, The Less I Know The Better

If you like music, there’s no reason at all you won’t love this band. They are soaking wet with beauty, each song is an adventure. I originally saw them on Jools Holland and after YouTubing their music I was hooked. It was only a matter of time before they got the ukulele treatment.

 

Today we are learning to play the Tame Impala ukulele tabs for Let It Happen, Cause I’m Your Man and The Less I Know The Better.

This video is part of a project I’m working on. I’m learning to play my favorite albums on a ukulele. If you enjoyed it why not check out some other classic albums that I arranged like Stone RosesJoy Division and Jimi Hendrix.

Tame Impala Ukulele Tabs

Not sure how to read these? Check out my free course and you will be learning these ukulele tabs in no time.

Let It Happen

A|-0----0----4----|---------------------|-9-9-9-8-6-6----------6------------ 
E|-0----2----4----|-9-9----9-9-9-9------|-6--------------9-9-9---9-7-9------
C|-1----1----3----|------------------x4-|-6------------------------------x2-
G|-2----2----1----|---------------------|-----------------------------------


Cause I'm Your Man

A|---7-7----------7----5/7-5-5-2/4-2---|
E|----------7-7-9--------------------5-|
C|-4-----------------------------------|
G|-------------------------------------|

The Less I Know The Better

A|---4/6-4-2---|-------4/6-4---4/6-6-4-2-------7/9-7---4/6-6-4-2-|----------------------|-
E|-----------4-|-------------------------------------------------|-2---4---2---4--------|-
C|-1-----------|-1-1-1-------1-----------4-4-4-------4-----------|---4---4---4---4----4-|-
G|-------------|-------------------------------------------------|----------------------|-

A|-4----2----7----|------------------------------------ E|-4----2----4----|---2-4-5-4-2--------7-5-4-5-4-2----- C|-4----3----4----|-4-----------4-1----------------4-1- G|-6----4----4----|------------------------------------

MORE SONGS FROM THIS ALBUM?

Easy-to-print PDFs tabs for over 150 albums.

Easy-to-print PDFs tabs for over 150 albums.