Give yourself a try, love it if we made it, Sincerity is scary

Give yourself a try, love it if we made it, Sincerity is scary

Matt Healy and co could quite easily have created another record of generic pop hits but they haven’t. Instead, they’ve made an album of contrasting sounds and themes which make the real pop songs on the record stand out even further than they normally would and have you hanging onto every second. They aren’t afraid to push limits and for that, they get my full respect.

This video is part of a project I’m working on. I’m learning to play my favourite albums on a ukulele. If you enjoyed it why not check out some other classic albums that I arranged. Like Radiohead or Mumford & Sons.

The 1975 Ukulele Tabs

Not sure how to read these? Check out my free course and you will be learning these ukulele tabs in no time.

Give yourself a try

A |2---2---2-----2-2-----
E |--2---2---4-------4---
C |----------------------
G |----------------------

love it if we made it

A |----------------------------------------
E |4-4-4-4-2-2-2-2-------------------------
C |4-4-4-4-4-4-4-4-x2---3-3-3-3-4-4-4-4-x2-
G |---------------------4-4-4-4-4-4-4-4----


A |----------------------------------7---------
E |--2-7-4---4-2-4-4---2---4-7-4-7-9---9-7-4---
C |4-------------------------------------------
G |--------------------------------------------


Sincerity is scary

A |4-----4h0---2-2---4--5-- 
E |0-----------4-4---5--5--
C |6-------------4---------
G |7-----------------------


MORE SONGS FROM THIS ALBUM?

Easy-to-print PDFs tabs for over 150 albums.

Easy-to-print PDFs tabs for over 150 albums.

Badge Unlocked

Welcome To The Jungle

Complete your first lesson

Badge Unlocked

Start Me Up

Complete The Basics

The Basics

In this section, we will cover everything you need to know about starting to play the ukulele.