Abbey Road

Come Together, Here Comes The Sun, Carry That Weight

There’s no need to say much about the album as countless words have been written that will tell you just what high regard this is held for not just Beatles’ fans, but music fans in general.

This video is part of a project I’m working on. I’m learning to play my favourite albums on a ukulele. If you enjoyed it why not check out some other classic albums that I arranged. Like Sgt Peppers or Revolver.

The Beatles Ukulele Tabs

Not sure how to read these? Check out this guide and you will be learning these ukulele tabs in no time.

Come Together

A |---------3-0----|-------------------------------------------------------- 
E |-----3/5-5-1----|-1--1-1--------1-1-1-1--------1--1-1--------1---1-------
C |-2-2---------x4-|--------2-0-2----------2-0-2---------2-0-2----2---2-0-2-
G |----------------|--------------------------------------------------------


A |-----------------------------------------------------3-0-
E |-------------------------------------------------3/5-5-1-
C |-4-2-4---2-4-2-4-2---5-5-5-5-5-5-5-5-4-2-0---2-2---------
G |---------------------------------------------------------

Here Comes The Sun

A |---4-----4-----4-----------------------------4-----4-----4--------4-----2-- 
E |-5---5-7---5-----7-5----5-7-5-----4---4-5-7--5-5-7---5-----7-5------7-5-4--
C |-4--------------------6---------6---6--------4------------------6----------
G |---------------------------------------------------------------------------


Carry That Weight

A |------------------------------------- 
E |-----------3-3-------3-3---------0---
C |-0---0-2-4-----5-2-------5-2---0-----
G |-----------------------------0-------

More songs from this album?

Support the site by joining Learn The Licks and getting easy to print PDFs of 150+ albums

login

Badge Unlocked

Welcome To The Jungle

Complete your first lesson

Badge Unlocked

Start Me Up

Complete The Basics

The Basics

In this section, we will cover everything you need to know about starting to play the ukulele.