Taxman, Yellow Submarine, Four No One

Taxman, Yellow Submarine, Four No One

The Fab four on four strings! Today we are learning The Beatles ukulele tabs for Taxman, Yellow Submarine and For No One.

This video is part of a project I’m working on. I’m learning to play my favourite albums on a ukulele. If you enjoyed it why not check out some other classic albums that I arranged like Sgt Peppers, Fleetwood Mac and The Clash.

The Beatles Ukulele Tabs

Not sure how to read these? Check out my free course and you will be learning these ukulele tabs in no time.

Taxman

A|-5-5-5--------5-5---7--------8-8----5-|- 
E|-2-2-2----5-8-----8---8-5----8-8----8-|-
C|-0-0-0--------------------------------|-
G|--------------------------------------|-

Yellow Submarine

A|-------------------------------------------
E|-7-8-10----7-5-7-3----7-7-5/3--------7-7-5-
C|------------------------------4----4-------
G|-------------------------------------------

Four No One

A|-------------------4-4-7-8-8-8-8-8-4-4-4-4---------------
E|-4-4-4----4-4-4----------------------------5-5-4-4-4-4-0-
C|---------------------------------------------------------
G|---------------------------------------------------------


A|-----8-11-13-11----------8-11-9-8-9-8-------------4-4------------------------------------4-
E|---9------------9------9--------------9---------6-----7-6-7-6-4-6-4-2-4-2-1-4--------1-4---
C|-8-------------------8------------------8-6-5-6----------------------------------1-3-------
G|-------------------------------------------------------------------------------------------

MORE SONGS FROM THIS ALBUM?

Easy-to-print PDFs tabs for over 150 albums.

Easy-to-print PDFs tabs for over 150 albums.