Sgt Peppers, With A Little Help From My Friends, Lucy In The Sky With Diamonds

Sgt Peppers, With A Little Help From My Friends, Lucy In The Sky With Diamonds

Rolling Stones top 500 albums – Number 1
32 million copies sold
Third best-selling album in UK history
4 Grammy awards
Time Magazine – the best album of all time

Truly one of the greatest of all time.

This video is part of a project I’m working on. I’m learning to play my favourite albums on a ukulele. If you enjoyed it why not check out some other classic albums that I arranged like The Beach Boys or Simon & Garfunkel.

The Beatles Ukulele Tabs

Not sure how to read these? Check out my free course and you will be learning these ukulele tabs in no time.

sgt peppers

A|-----------------------3----5-3----------|
E|-----5-5-----5-5-----5----------7-5------|
C|-4h7-----4h7-----4h7----------------7----|
G|-----------------------------------------|


A|-0----------------3----------------2----|
E|-0----------------0----------------3----|
C|-1----------------0----------------2----|
G|-2----------------0----------------0----|


with a little help from my friends

A|---2-2-2----------------------------------------------------------------
E|-4----------5-4-2----5-5-5----4-4-4----2-2-2------2-4----2-0------------
C|------------------------------------------------4------------1-0-1/2----
G|------------------------------------------------------------------------

Lucy In The Sky With Diamonds

A|-10----3----5----5----|
E|-7-----3----5----5----|
C|-7-----4----6----6----|
G|-7-----5----7----7----|

A|--------------7-------------------------| E|-------7-8-10---10-10-10-10-10-10-10-10-| C|-7-7-9----------------------------------| G|----------------------------------------|
A|-----------------------------------| E|-----------------------------------| C|-----------------------------------| G|-12-12-12-12-12-10----9-7-5-4-2----|

MORE SONGS FROM THIS ALBUM?

Easy-to-print PDFs tabs for over 150 albums.

Easy-to-print PDFs tabs for over 150 albums.