Mens Needs, Womens Needs, Whatever

Our bovine public, moving pictures, shoot the poets

I always admired The Cribs as they are one of them bands that truly embraced their shambolic side. I loved Hey Scenesters and Mirror Kissers and would always welcome them when they came on in the Indie club night. This was during a time when Indie ruled and every man and his dog was trying to start their own provincial band, with a local accent. The Cribs stood out though and by the time they released their 3rd album they have already had a cult following. I was one of them.

This video is part of a project I’m working on. I’m learning to play my favourite albums on a ukulele. If you enjoyed it why not check out some other classic albums that I arranged. Like The Libertines or Stone Roses.

The Cribs Ukulele Tabs

Not sure how to read these? Check out this guide and you will be learning these ukulele tabs in no time.

our bovine public

A|-9---9------6-6-|-9---9------6-6-|
E|---6---7----7-7-|---6---7----7-7-|
C|----------------|----------------|
G|----------------|----------------|

A|-9---9------6-6-|-6-6-6-6-7-7-7-7-6-|
E|---6---7----7-7-|-7-7-7-7-7-7-7-7-7-|
C|----------------|-------------------|
G|----------------|-------------------|

A|-9---9------6-6-|-9---9------6-6-|
E|---6---7----7-7-|---6---7----7-7-|
C|----------------|----------------|
G|----------------|----------------|

A|-9---9------6-6-|-6-6-6-6-7-7-7-7-9-|
E|---6---7----7-7-|-7-7-7-7-7-7-7-7-7-|
C|----------------|-------------------|
G|----------------|-------------------|

moving pictures

A|--------------------------|-----------------------------
E|-4-4----5-5----4-4----7-7-|-4-4----5-5----7-7----2-2----
C|-4-4----4-4----4-4----4-4-|-4-4----4-4----4-4----4-4----
G|--------------------------|-----------------------------

Shoot The Poets

A|---4-3-----3--------3-----|---4-3-----3--------3-----
E|-------4--------4-----4---|-------4--------4-----4---
C|---------5--------5-----5-|---------5--------5-----5-
G|-6------------------------|-3------------------------

A|---1-------1--------1-----|---4-3-----3--------3----
E|-----2-2--------2-----2---|-------4--------4--------
C|---------3--------3-----3-|---------5--------5------
G|-3------------------------|-6-----------------------

More songs from this album?

Support the site by joining Learn The Licks and getting easy to print PDFs of 150+ albums

login

Badge Unlocked

Welcome To The Jungle

Complete your first lesson

Badge Unlocked

Start Me Up

Complete The Basics

The Basics

In this section, we will cover everything you need to know about starting to play the ukulele.