Mr Brightside, Smile Like You Mean It, On Top

Mr Brightside, Smile Like You Mean It, On Top

Another tough choice of what album to choose by a band with a fantastic discography. I went with Hot Fuss as I was a sucker for All These Things That’s I’ve Done when I first heard this album. It’s still one of my favourite songs of all time. I had to blast it out one more time!

This video is part of a project I’m working on. I’m learning to play my favourite albums on a ukulele. If you enjoyed it why not check out some other classic albums that I arranged like Nirvana – Nevermind, The Strokes or Kings of Leon.

The Killers Ukulele Tabs

Not sure how to read these? Check out my free course and you will be learning these ukulele tabs in no time.

Mr Brightside

A|-----4---4-6-4-------4---4-6-4-------4---4-6-4-------4---4-6-4---
E|---4---4-------4---4---4-------4---4---4-------4---4---4-------4-
C|-1---------------0---------------1---------------1---------------
G|-----------------------------------------------------------------

Smile Like You Mean It

Intro Riff                                 Riff after drop

A|-----------------|-----------------|----|----------1-------------------1----------------
E|-----------6-6---|-----------------|----|---7-6----2------7-6---7-7----2------7-6---7-6-
C|-6-6-6-6-6-----3-|-3-3-3-3-3-3-3-3-|----|-3--------1----3-----3--------1----3-----3-----
G|-----------------|-----------------|----|----------------------------------------------- 


Riff 2

A|-1------------------------|-2--------------------- |-1-------------9-|- E|-2------7-6------7-6----4-|-2------7-6------7-6-4- |-2----4----2-4-6-|- C|-3----3--------3----------|-3----3--------3------- |-1----3----1-3-6-|- x2 G|--------------------------|-4--------------------- |-3---------------|-

On Top

A|-------7-6---7------------7-6---7------------6-4---6------------6-4---6---
E|-----------7---9--------------7---9--------------4---7--------------4---7-
C|-8-8-8--------------8-8-8--------------6-6-6--------------6-6-6-----------
G|--------------------------------------------------------------------------

A|-------7-6---7------------7-6---7------------6-4---6------------7-6---7---
E|-7-7-7-----7---9----7-7-7-----7---9----7-7-7-----4---7----7-7-7-----7---9-
C|-8-8-8--------------8-8-8--------------6-6-6--------------8-8-8-----------
G|--------------------------------------------------------------------------


MORE SONGS FROM THIS ALBUM?

Easy-to-print PDFs tabs for over 150 albums.

Easy-to-print PDFs tabs for over 150 albums.