Ukulele Utopia

A Virtual Learning Experience

Sams Town

Sams Town, When We Where Young, Bones

This band is just MEGA. There’s no other way about it. They have this knack of writing absolute anthems, songs that you have no choice but to bust out your lungs to them whenever you listen. I was always obsessed with My List when I first heard the album, don’t know what it is but I always found myself drawn to it.

This video is part of a project I’m working on. I’m learning to play my favorite albums on a ukulele. If you enjoyed it why not check out some other classic albums that I arranged. Like Hot Fuss or Bloc Party.

The Killers Ukulele Tabs

Not sure how to read these? Check out this guide and you will be learning these ukulele tabs in no time.

Sams Town

A |-----------------2-2-----2-2-----4-4-2-2-4-4-2-2-4-4-2-2---------
E |-4-4-----4-4---------4-4-----4-4-------------------------4-4-2-2-
C |-----4-4-----4-4-------------------------------------------------
G |-----------------------------------------------------------------

A |-----------------2-2-----2-2-----4-4-6-6-7-7-9-9-7-7-6-6-4-4-2-2-
E |-4-4-----4-4---------4-4-----4-4---------------------------------
C |-----4-4-----4-4-------------------------------------------------
G |-----------------------------------------------------------------


A |-----4-------7-----------------4-------7--------7---|---------------|
E |---5---5---9---9-----5-------5---5---9---9--9-9---9-|-0-4-2--0-2-4--|
C |-----------------6-6---6----------------------------|-1-4-1--1-1-4--|
G |-2-------6-----------------2-------6----------------|-2-6-2--2-2-6--|

When We Where Young

A |----------------------------------------------------------------
E |-----------------2-2-2-4-4-4-4-4-7-7-7-7-7-7-7-7----------------
C |-3-3-3-3-3-3-3-3-1-1-1-3-3-3-3-3-6-6-6-6-6-6-6-6-3-3-3-3-3-3-3-3
G |-4-4-4-4-4-4-4-4---------------------------------4-4-4-4-4-4-4-4

A |------11-9----------11-9--- E |----7------11-----7-------- C |--8-------------8--------8- G |---------------------------

Bones

A |-----7---9-7------------------------------------------------
E |---9---9-----9---7---7---9-7-----------9-7-5---9-9-9-9-10-7-
C |-9-----------------9---9------9-6--4-6----------------------
G |------------------------------------------------------------

More songs from this album?

Support the site by joining Learn The Licks and getting easy to print PDFs of 150+ albums

login

Badge Unlocked

Welcome To The Jungle

Complete your first lesson

Badge Unlocked

Start Me Up

Complete The Basics

The Basics

In this section, we will cover everything you need to know about starting to play the ukulele.