She Moves In Her Own Way, Naive, Got No Love

She Moves In Her Own Way, Naive, Got No Love

The debut album from The Kooks is a nostalgia trip and it takes me back to a simpler time in my life. It catapulted them into mainstream success and spawned 7 singles. Let’s learn to play some of them on the ukulele.

 

Today we are learning to play She Moves In Her Own Way, Naive and Got No Love. These ukulele tabs are taken from my arrangement of the album which you can check out below. 

This arrangement is part of a project I am working on. I’m learning to play my favourite albums of all time. Some other indie artists from around this era I have done are Arctic MonkeysFoals and Two Door Cinema Club. 

The Kooks Ukulele Tabs

Not sure how to read these? Check out my free course and you will be learning these ukulele tabs in no time.

She Moves In Her Own Way

A |-2-2---2-2-2---2-2-2--3-3------2-------3---5---|
E |-3-3---3-3-3---3-3-3--3-3----------------------|
C |-2-2---2-2-2---2-2-2--0-0--0h2-----2/4---6---7-|
G |-0-0---0-0-0---0-0-0--0-0----------------------|

Naive

Although this may sound like a complicated strumming pattern, it’s really not. It just requires some practice to get it right. The first chord of each part is always a down strum then it’s D, U, U, U, D. We just follow that pattern throughout.

The 3rd requires a hammer-on (h). This means you strum the chord and then fret the next two fingers without strumming again. My guide on hammer-ons will help you if you are still confused.

A |----4--4-4--4-4-----7--7-7--7-7--|------1--1-1--1-1-------2-----2--|
E |----4--4-4--4-4-----4--4-4--4-4--|-1-2--2--2-2--2-2--1/2--2--2--2--|
C |-3--3--3-3--3-3--4--4--4-4--4-4--|-1-1--1--1-1--1-1--2/3--3--3--3--|
G |-1---------------4---------------|-1-3---------------3/4-----3-----|

Got No Love

I’m using a low G for this song but it sounds perfectly fine with a normal G as the notes are the same.

 A |------2----------------2----------|-2---10-10--10--10--7---7-5--|
 E |--------3--3---3---------3--3---3-|-3---12-12--12--12--8---8-7--|
 C |----2--------0-------2--------0---|-----------------------------|
 G |--0----------------0--------------|-----------------------------|

MORE SONGS FROM THIS ALBUM?

Easy-to-print PDFs tabs for over 150 albums.

Easy-to-print PDFs tabs for over 150 albums.