Aviation, Bad Habits, Patterns

Aviation, Bad Habits, Patterns

A musical masterclass from Alex Turner and Miles Kane. The Last Shadow Puppets second album is one for everyone’s collection. Let’s learn to play some of it on a ukulele.

 

Today we are learning to play Aviation, Bad Habit and Patterns. All the ukulele tabs are taken from my video arrangement of Everything You’ve Come To Expect.

If you enjoyed the video you might be keen to see my arrangements of the Arctic Monkeys albums AM and Tranquility Base Hotel & Casino.

The Last Shadow Puppets Ukulele Tabs

Not sure how to read these? Check out my free course and you will be learning these ukulele tabs in no time.

Aviation

The start of the riff is the 3rd fret after the pull-off. However, you don’t actually pluck that note. So the timing can sound a little it off sometimes. 

A |-----5-----5-3-----|-----5-----5-3-----|
E |-6p3---5h6-----6-5-|-6p3---5h6-----6-5-| x2
C |-------------------|-------------------|
G |-------------------|-------------------|

Bad Habits

This is the bass line that runs throughout the song. In my arrangement I use a palm muting technique to make the riff sound a little bit more interesting.

A |---7-7--5-7--5-7-5----8-8----8-----------| 
E |-0------------------8------8-----0-1-3-5-|
C |-----------------------------------------|
G |-----------------------------------------|


A |------7-7p5---------|------7-7p5---------------|
E |--0---7-7-----------|--0---7-7---------5-1-----|
C |-------------5------|--------------5-------4-0-|
G |--------------------|--------------------------|

Patterns

A |---2--2-2--2-2-2-2-2-2--|--3-3-3-3-3-3---3-3-3-3-3-3--|
E |---3--3-3--3-5-5-5-5-3--|--3-3-3-3-5-3---5-5-5-5-6-5--|
C |-4----4-4--4-4-4-4-4-4--|--4-4-4-4-4-4---4-4-4-4-4-4--|
G |------------------------|-----------------------------|

MORE SONGS FROM THIS ALBUM?

Easy-to-print PDFs tabs for over 150 albums.

Easy-to-print PDFs tabs for over 150 albums.