Ukulele Utopia

A Virtual Learning Experience

The Libertines

Cant Stand Me Now, Music When The Lights Go Out, What Katie Did

The second album from The Libertines carries on from their sublime debut. They are a band that captured the whirling feeling of falling apart and absolutely loving it at the same time. Let’s learn to play some of them songs on a ukulele.

 

Today we are learning to play Can’t Stand Me Now, Music When The Lights Go Out and What Katie Did. These Libertines ukulele tabs are taken from this arrangement from my YouTube channel.

This isn’t the first time I have arranged The Libertines on the ukulele. You can check out my version of Up The Bracket here.

The Libertines Ukulele Tabs

Not sure how to read these? Check out this guide and you will be learning these ukulele tabs in no time.

Cant Stand Me Now

The opening track on this album is just superb and I will NEVER tire of it! It’s originally played on two guitars so I have picked out the most prominent parts of them both.

A |-6-7-7-7-6-7-7-----7-11---7---11--11-| 
E |---------------9--------9---9-12--12-|
C |-------------------------------------|
G |-------------------------------------|

A |-11--11----------11--11--------11----------11-----11-11-11-11-11-11-|
E |-------12------12------12----12--12--12--12--12---12-12-12-12-12-12-|
C |---------13--13----------13--------13----------13-------------------|
G |--------------------------------------------------------------------|

A |-2---2------2------2------2------2---|----|-2-2-2-2--2-2-2--2--2-2-2--2-2-2--|
E |-4h5----4h5----4h5----4h5----4h5---4-|----|-0-0-2-0--4-4-4--2--0-2-0--4-4-4--|
C |-4-----------------------------------|-x4-|----------------------------------|
G |-------------------------------------|----|----------------------------------|

A |-----------------------|----4---------2--------0-----2-2-2---2-2---2-2--7--|
E |------2-2--------2-2-2-|------4---------3--------0---2-2-2---2-2---2-2--4--|
C |--4-4-4-4-4-4--4-4-4-4-|-4------4--3------4-1------1-3-3-3---3-3---3-3--4--|
G |--2-2-----2-2--2-------|-----------4--------2--------4-4-4---4-4---4-4--4--|

Music When The Lights Go Out

The tab looks way more confusing then it actually is. The h’s between the numbers are hammer-ons. This guide will fill you in on how to play them.

After you have hammered-on from the 2nd to the 3rd fret. Theres a pretty quick slide up to the 12th fret. 

 A |-----------------------------------------------------|
 E |-0h1-2h3/12--0h1-2h3/12-12---0h1-2h3/12-12--10--8-7--|
 C |-----------------------------------------------------|
 G |-----------------------------------------------------|

What Katie Did

I feel like this song translates really well on the ukulele. The libertines are known for their jangly riffs is this is a perfect example.

For the opening chord, use your first finger on the 4th fret of the A string and your middle finger on the 5th of the E. 

A|-4--4-4--4-4-4--4--4-4-|-4--4-4--4-4-4--4--4-4-|-5--4-4-5-4--4-4--4-|-5--5-5--5-|-8--8-8--8-|
E|-5--5-5--5-5-5--5--5-5-|-4--4-4--4-4-4--4--4-4-|-5--5-5-5-5--5-5--5-|-2--2-2--2-|-5--5-5--5-|
C|-----------------------|-----------------------|--------------------|-----------|-----------|
G|-----------------------|-----------------------|--------------------|-----------|-----------|

More songs from this album?

Support the site by joining Learn The Licks and getting easy to print PDFs of 150+ albums

login

Badge Unlocked

Welcome To The Jungle

Complete your first lesson

Badge Unlocked

Start Me Up

Complete The Basics

The Basics

In this section, we will cover everything you need to know about starting to play the ukulele.