Turn The Page, Has It Come To This, Too Much Brandy

Turn The Page, Has It Come To This, Too Much Brandy

Wit, Wisdom and Beats!

This video is part of a project I’m working on. I’m learning to play my favourite albums on a ukulele. If you enjoyed it why not check out some other classic albums that I arranged. Like Gorillaz or Red Hot Chilli Peppers.

The Streets Ukulele Tabs

Not sure how to read these? Check out my free course and you will be learning these ukulele tabs in no time.

turn the page

A|-5---------|-5-12-12-12-12-12-10-7-5- 
E|-5---------|-5-----------------------
C|-5---x4----|-5-----------------------
G|-7---------|-------------------------


has it come to this

A|-----2-----1/2-----5--------5--------5--|-----2--0--0-----5--------5--------5--|--
E|-----3-----2-3--------3--------3--------|-----3--2--0--------3--------3--------|--
C|--2--2--2--1-2--2--------2--------2-----|--2-----------2--------2--------2-----|--
G|----------------------------------------|--------------------------------------|--

A|-----5--------5--------5--------5--------5-----2-----5-----3-----2----- E|--------2--------2--------2--------2--------2--3-----7-----5-----3----- C|----------------------------------------------------------------------- G|--2--------2--------2--------2--------2--------------------------------

too much brandy

A|-12-8-7---------|--------------------------------------------- 
E|--------10------|-----5----5-6-5----3-1-3-3-5-3-3-------------
C|-------------x8-|-2-2-----------------------------5-5-4-4-0-2-
G|----------------|---------------------------------------------

MORE SONGS FROM THIS ALBUM?

Easy-to-print PDFs tabs for over 150 albums.

Easy-to-print PDFs tabs for over 150 albums.