Ukulele Utopia

A Virtual Learning Experience

A New Abnormal

The Adults Are Talking, Bad Decisions, At The Door

This video is a straight-up request from the subscribers. A few people have commented recently asking me if I can give it a shot and I thought, why on earth not. I love the first few Strokes albums and my ukulele arrangements of them were very well received. However, in all honesty, The Strokes lost me after the newer albums. I skimmed over them but I just felt like they didn’t jump at me in any way.

 

I went into listening to this album without that mentality and I must say, I really enjoyed it. It seemed to have to grit of Is This It. I especially love the track “Bad Decisions”.

 

I’m forever looking for new albums and artists to arrange on the ukulele so please drop me a comment and let me know what you would like to hear!

If you didn’t already know, I spend my free time arranging and learning to play my favorite albums on a ukulele. This isn’t the first time I have done The Strokes, in fact, I did their first 3 albums.

 

You can learn to play some songs of Is This ItRoom On Fire and First Impressions Of Earth. Check out the videos below too. 

The Strokes Ukulele Tabs

Not sure how to read these? Check out this guide and you will be learning these ukulele tabs in no time.

The Adults Are Talking

A |-----------------------------------------------------|
E |-6-6---------6-6---------5-6-6---------6-6-----------|
C |-----7---7-7-----7---7-7-------4---4-4-----4---4-4-7-|
G |-----------------------------------------------------|

A |------------------------------------------------------|
E |--5-5---------5-5-----------5-5---------5-5---------5-|
C |------5---5-5-----5---5-5-7-----2---2-2-----2---2-2---|
G |------------------------------------------------------|

Bad Decisions

A |---10--10-8---7---5-|--8---8--7---5-----|
E |-8---8------8---8---|-----------------8-|
C |--------------------|5---5------5---5---|
G |--------------------|-------------------|

At The Door

A |--------------------|--------------------|------------------------8-|-6-5----5-----5---6-6--|
E |--6----6-----6--8-5-|--6----6-----6--8-5-|--10-----10------10--10-8-|-6-6--6-6---6-6---6-6--|
C |--7--7-7---7-7--9-5-|--7--7-7---7-7--9-5-|--10--10-10---10-10--10---|-----------------------|
G |--------------------|--------------------|--------------------------|-----------------------|

More songs from this album?

Support the site by joining Learn The Licks and getting easy to print PDFs of 150+ albums

login

Badge Unlocked

Welcome To The Jungle

Complete your first lesson

Badge Unlocked

Start Me Up

Complete The Basics

The Basics

In this section, we will cover everything you need to know about starting to play the ukulele.