Ukulele Utopia

A Virtual Learning Experience

First Impressions Of Earth

You Only Live Once, Juicebox, Fear Of Sleep

I always thought The Strokes had this effortless coolness about them. Everything they put out seems to ooze it. Especially this album. It had the quick and catchy riffs of the first 2 albums but they also introduced an arena-size sound too. One big regret of mine is not been able to catch these guys live.

This video is part of a project I’m working on. I’m learning to play my favorite albums on a ukulele. If you enjoyed it why not check out some other classic albums that I arranged like The Libertines , Kings Of Leon or Oasis.

The Strokes Ukulele Tabs

Not sure how to read these? Check out this guide and you will be learning these ukulele tabs in no time.

You Only Live Once

A|-----------------------------------|----|-----------------------------------|----|-
E|-----------------------------------|----|-7----7-7----7-7----7----7----7----|----|-
C|-4----4-4----4-4----4----4----4----|-x2-|-4----4-4----4-4----4----4----4----|-x2-|-
G|-----------------------------------|----|-----------------------------------|----|-

A|-4-4-4-4-4----2----2----2-2----2-|-4-4-4-4-4----1----1----1-1----1-|-
E|-4-4-4-4-4----4----4----4-4----4-|-4-4-4-4-4----2----2----2-2----2-|-
C|---------------------------------|---------------------------------|-
G|---------------------------------|---------------------------------|-


Juicebox

A|-----------------|----|-
E|---------6-5-----|----|-
C|-4-4-7-4-----7-5-|-x4-|-
G|-----------------|----|-

Fear Of Sleep

A|-------------------|---6---6----------6---6---6---6------6------6----|-
E|-6---------6-6-6-6-|-6---5---4-3----6---5---4---3------6---4----8----|-
C|-7--x24----5-5-5-5-|--------------------------------------------8----|-
G|-------------------|-------------------------------------------------|-

More songs from this album?

Support the site by joining Learn The Licks and getting easy to print PDFs of 150+ albums

login

Badge Unlocked

Welcome To The Jungle

Complete your first lesson

Badge Unlocked

Start Me Up

Complete The Basics

The Basics

In this section, we will cover everything you need to know about starting to play the ukulele.