Ukulele Utopia

A Virtual Learning Experience

Room On Fire

Whatever Happened, Between Love And Hate, Meet Me In The Bathroom

The Strokes to me, symbolise this slick, laid-back style of music that is just there not to cause something big, or attention for that matter, but to get you through the day, to soothe you, and make you forget about your worries. Perfect for the ukulele!

This video is part of a project I’m working on. I’m learning to play my favourite albums on a ukulele. If you enjoyed it why not check out some other classic albums that I arranged like The Libertines – Up The Bracket, Kings Of Leon – Aha Shake Heartbreak and Radiohead – In Rainbows.

The Strokes Ukulele Tabs

Not sure how to read these? Check out this guide and you will be learning these ukulele tabs in no time.

Whatever Happened

A|-2-2-2-2-2-2-2-2-|-2/4----2-2-4----2-4----2----2-2-4----2-2-4-6-4-2----|-
E|-----------------|-----------------------------------------------------|-
C|-----------------|-----------------------------------------------------|-
G|-----------------|-----------------------------------------------------|-


A|-6-6-6----4----6-4-4----6-4--------------------|----2----7----4----7----|-
E|-------------------------------4----6-7----6/4-|----2----4----1----4----|-
C|-----------------------------------------------|----3----4----1----4----|-
G|-----------------------------------------------|----4----4----1----4----|-

Between Love And Hate

A|---7-12-7---7-12-7-|---7-12-7---7-12-7-|---7-12-7---7-12-7-|---7-12-7---7-12-7-|-
E|-------------------|-------------------|-9--------9--------|-7--------7--------|-
C|-9--------9--------|-9--------9--------|-------------------|-------------------|-
G|-------------------|-------------------|-------------------|-------------------|-

A|---5-9-5---5-9-5-|---5-9-5---5-9-5-|---7-12-7---7-12-7-|---7-12-7---7-12-7-|- E|-7-------7-------|-7-------7-------|-9--------9--------|-7--------7--------|- C|-----------------|-----------------|-------------------|-------------------|- G|-----------------|-----------------|-------------------|-------------------|-

Meet Me In The Bathroom

A|-10-7----10-7----|-10-7----10-7----|-------------|-------------|-
E|------10------10-|------10------10-|-8-----8-----|-8-----8-----|-
C|-----------------|-----------------|---9-7---9-7-|---9-7---9-7-|-
G|-----------------|-----------------|-------------|-------------|-

More songs from this album?

Support the site by joining Learn The Licks and getting easy to print PDFs of 150+ albums

login

Badge Unlocked

Welcome To The Jungle

Complete your first lesson

Badge Unlocked

Start Me Up

Complete The Basics

The Basics

In this section, we will cover everything you need to know about starting to play the ukulele.