Debut Album

Intro, VCR, Crystallised

I remember been instantly awed by these guys after seeing their live set at Glastonbury on tv. They had this beautiful simplicity to them. Haunting vocals and amazing production by Jamie XX. A Worthy addition to my top 50 project!

This video is part of a project I’m working on. I’m learning to play my favourite albums on a ukulele. If you enjoyed it why not check out some other classic albums that I arranged. Like Joy Division or Gorillaz.

The XX Ukulele Tabs

Not sure how to read these? Check out this guide and you will be learning these ukulele tabs in no time.

Intro

A|-------------------------
E|-5----5----5-5----5----5-
C|-------------------------
G|-------------------------

A|-------------------------|-3----3----3-3----3----3-|- E|-5----5----5-5----5----5-|-------------------------|- C|-------------------------|-------------------------|- G|-------------------------|-------------------------|-
A|-5----5----5-5----5----5-|-7----7----7-7----7----7-|- E|-------------------------|-------------------------|- C|-------------------------|-------------------------|- G|-------------------------|-------------------------|-
A|-5----5----5-3----3----3-|- E|-------------------------|- C|-------------------------|- G|-------------------------|-
Main Part

A|-----3-3-5-5-3-3------3-3-5-5-3-3-----3-3-7-7-3-3-5-5-3-3-7-7-3-3-
E|-5-5----------------5-------------5-5-----------------------------
C|------------------------------------------------------------------
G|------------------------------------------------------------------

VCR

A|---7---7---7---7-10-7-|---7---7---7---7-10-7-|-
E|-8---8---8---8--------|-8---8---8---8--------|-
C|----------------------|----------------------|-
G|----------------------|----------------------|-

A|---7---7---7---7-10-7-|---7---7---7---7-10-7-|-
E|----------------------|-8---8---8---8--------|-
C|-5---5---5---5--------|----------------------|-
G|----------------------|----------------------|-

Crystalised

A|------9-9-8-7---------------------------------------
E|-7------------9----9----9/10-10---------------------
C|--------------------------------4----4-4-4/7----7-7-
G|----------------------------------------------------

A|--------------9-9----9----7--------------------------
E|-7----7-10-10----------10---10-7-7-7-10-10------10-7-
C|----------------------------------------------7------
G|-----------------------------------------------------

More songs from this album?

Support the site by joining Learn The Licks and getting easy to print PDFs of 150+ albums

login

Badge Unlocked

Welcome To The Jungle

Complete your first lesson

Badge Unlocked

Start Me Up

Complete The Basics

The Basics

In this section, we will cover everything you need to know about starting to play the ukulele.