Heavy Dirty Soul, Tear In My Heart, The Judge

Heavy Dirty Soul, Tear In My Heart, The Judge

Ok some may be surprised to see this in my top 50 albums of all time list. However, I instantly fell for this band after hearing this album. Every song is uniquely different yet fit perfectly together. Not only do they sound great on record for a 2 piece, they were incredible when I saw them at Leeds Festival this year.

This video is part of a project I’m working on. I’m learning to play my favourite albums on a ukulele. If you enjoyed it why not check out some other classic albums that I arranged. Like Vessel or Trench.

Twenty One Pilots Ukulele Tabs

Not sure how to read these? Check out my free course and you will be learning these ukulele tabs in no time.

heavy dirty soul

A|--1-----|--1-----|--0-----|--3-----|
E|--1-----|--3-----|--1-----|--0-----|
C|--2-----|--2-----|--2-----|--0-----|
G|--3-----|--0-----|--2-----|--0-----|

Play each of these chords 4 times each

A|-----------------------------------------|---------------------------------------------------|
E|-5-3-3----5-3-3-1----5-3-3-1-5-8-5-3-1/3-|-------------------------------5-3-3-1-5-8-5-3-1-3-|
C|-----------------------------------------|-0-2-4-5-7-5----0-2-4-5-7-2------------------------|
G|-----------------------------------------|---------------------------------------------------|

Tear In My Heart

A|-5-5----9-9----10-10-|-----|-0----0----|-
E|-2-2----6-6----7--7--|-----|-0----0----|-
C|-2-2----6-6----7--7--|- x3-|-1----1----|-
G|-2-2----6-6----7--7--|-----|-0----2----|-

The Judge

A|---0---0---3---0---|---0---0---3---3--|
E|---0---1---0---1---|---0---1---0---0--|
C|---0---0---0---0---|---0---0---0---0--|
G|---2---2---0---2---|---2---2---0---0--|

A|---------------3----------7---5---3---|---|---------------3------7---5---3---5---7---| E|---0---3---5----------5---------------|-x2|---0---3---5------------------------------| C|--------------------------------------|---|------------------------------------------| G|--------------------------------------|---|------------------------------------------|

MORE SONGS FROM THIS ALBUM?

Easy-to-print PDFs tabs for over 150 albums.

Easy-to-print PDFs tabs for over 150 albums.