Trench

Levitate, Morph, Nico And The Niners

I’m a HUGE fan of this band. I got into them after they released the Blurryface album a couple of years ago. The first song I heard was Ride, I was instantly hooked by the reggae vibe in the song. After hearing Blurryface I was blown away by the depth of their sound. They seem to blend genres seamlessly. Needless to say, I have been waiting very patiently for the new album.

 

Today we are learning to play the Twenty One Pilots ukulele TABs for Levitate, Moprh and Nico And The Niners.

This video is part of a project I’m working on. I’m learning to play my favourite albums on a ukulele. If you enjoyed it why not check out some other classic albums that I arranged like Blurryface and Vessel.

Twenty One Pilots Ukulele Tabs

Not sure how to read these? Check out this guide and you will be learning these ukulele tabs in no time.

Levitate

A|-10--------------10--------------
E|----12----3-2-------12----3-2----
C|----------4-3-------------4-3----
G|---------------------------------

Morph

A|-------4-----4----------4-----4-|----7-6-4---------------|-
E|-----4-----5----------4-----5---|----------------4/7-7-4-|-
C|---4-----6----------4-----6-----|------------------------|-
G|-6----------------6-------------|------------------------|-

Nico And The Niners

A|-5----0----|-7-7-5-----------------------7-7-5-------------------------7-7-5-
E|-5----0----|-----------------------------------------------------------------
C|-5----0----|----------2-2-2-2-4-4-4-4-------------2-2-2-2-4-5-4-2-0----------
G|-7----2----|-----------------------------------------------------------------

A|----------------------------------------------------------- E|----------------------------------------------------------- C|-4-7-5-4-4-4-4-4-4-2-0----2-2-2-2-2-2-0----2-2-2-2-2-4-2-0- G|-----------------------------------------------------------

More songs from this album?

Support the site by joining Learn The Licks and getting easy to print PDFs of 150+ albums

login

Badge Unlocked

Welcome To The Jungle

Complete your first lesson

Badge Unlocked

Start Me Up

Complete The Basics

The Basics

In this section, we will cover everything you need to know about starting to play the ukulele.