Ode to sleep, holding onto you, House of gold

Ode to sleep, holding onto you, House of gold

Albums on a ukulele makes it return and I start with easily the requested album of the last series. Twenty-One Pilots – Vessel. Im quite a new fan to tøp considering how long they have actually been a band. I fell in love with the blurry face album and after making my way through their discography, I quickly fell for everything they have ever done!

This video is part of a project I’m working on. I’m learning to play my favourite albums on a ukulele. If you enjoyed it why not check out some other classic albums that I arranged. Like Blurryface or Trench.

Twenty One Pilots Ukulele Tabs

Not sure how to read these? Check out my free course and you will be learning these ukulele tabs in no time.

Ode to sleep

Intro Riff

A|---7---7-9-10-12-10-9-7---7-|----|---7---7-9-10-12-10-9-7---7-|----| E|-7---7------------------7---|----|-8---8------------------8---|----| C|----------------------------|----|----------------------------|----| G|----------------------------|----|----------------------------|----|
Part 2 - Vocal Line

A|-5-3-5-2----------------5-3-----|---------5-----|---------7-----|---------5-----|------------10- E|------------3-5-7-7-7-5-----7-5-|-7-5-7-5---8-7-|-7-5-7-5---8-7-|-7-5-7-5---8-7-|--------------- C|--------------------------------|---------------|---------------|---------------|-7-9----6-7---- G|--------------------------------|---------------|---------------|---------------|---------------
Bass Riff

A|-----------------|-------------------|-----------------|-----------------|
E|-3-3-3-3-3-3-3-3-|-3-3-3h5p3-2-2-----|-----------------|-----------------|
C|-----------------|-------------------|-4-4-4-4-4-4-4-4-|---------2-2-2-2-|
G|-----------------|---------------4-4-|-----------------|-2-2-2-2---------|

Holding onto you

Chords / Picking

A|-6---6---6---6---|-6---6---6---6---|- E|-7---7---7---7---|-7---7---7---7---|- A|-8-8-8-8-8-8-8-8-|-6-6-6-6-6-6-6-6-|- G|-----------------|-----------------|-
Riff

A|-9------------|------9--------|-
E|---9-11-6-4-1-|-11-9---11-9-7-|-
A|--------------|---------------|-
G|--------------|---------------|-

House of gold

Vocal Line

A|-5-7-5-3-5-7-10-7----|-5-7-5-3-5-2-0------|-5-7-5-3-5-7-10-7----|-5-7----5-5------3- E|---------------------|---------------3----|---------------------|---------------3--- A|---------------------|--------------------|---------------------|------------------- G|---------------------|--------------------|---------------------|-------------------
A|-----------12----7----|-8-5-13----8-8-4-3-|----------------------------
E|-5----8---------------|-------------------|-5-5-5-3---3----5-5-5-3-----
A|----------------------|-------------------|---------4--------------5-5-
G|----------------------|-------------------|---------------------------- 


Chords

A|--3-----|--3--0--0--2--|--3--0--3--2--3--|--0--0--0--1--|--0--3--0--3-- E|--0-----|--0--1--0--3--|--0--1--0--3--0--|--1--0--1--1--|--1--0--1--0-- A|--0-----|--0--0--0--2--|--0--0--0--2--0--|--0--1--2--1--|--0--0--0--0-- G|--0-----|--0--2--2-----|--0--2--0-----0--|--2--0--2--3--|--2--0--2--0--

MORE SONGS FROM THIS ALBUM?

Easy-to-print PDFs tabs for over 150 albums.

Easy-to-print PDFs tabs for over 150 albums.