Are We Ready, Gameshow, Bad Decisions

Are We Ready, Gameshow, Bad Decisions

The time has come again for me to tackle another Two Door Cinema Club album on the ukulele. It was a tough choice going for either Beacon, Gameshow or their newest output False Alarm. I settled for Gameshow as that was the album that I feel like i “discovered” TDCC. By that I mean, I heard Lavender on the radio and immediately asked Siri who the fudge this was. Then proceeded me cramming all their albums into my lobes.

This video is part of a project I’m working on. I’m learning to play my favourite albums on a ukulele. I also arranged Two Door Cinema Clubs’ debut album Tourist History too.

Two Door Cinema Club Ukulele Tabs

Not sure how to read these? Check out my free course and you will be learning these ukulele tabs in no time.

Are We Ready

A |-1--5--1--5--|-1--5--3--3--|
E |-3--5--1--5--|-3--5--3--3--|
C |-2--5--2--5--|-2--5--4--4--|
G |-0--7--3--7--|-0--7--5--5--|

A |-----------------------------------------------------------------------------------
E |----5--3-5----------------5--3-5----------------3--1-3--------------3--1-3---3-3-3-
C |--2----------2--4-5-4---2---------2--4-5-4---0-----------0-2-0-2--0----------------
G |-----------------------------------------------------------------------------------


Gameshow

A |------------------------------------------12-10----12-12-10----|
E |-5-7-3-3--5-7-3/5-3-0-----5---7---10--12-------12----------12--|
C |----------------------x2---------------------------------------|
G |---------------------------------------------------------------|

Bad Decisions

A |--0--3--1--|
E |--1--3--1--|
C |--0--3--2--| x2
G |--2--5--3--|

A |-6-6-x-6/8--8/10-8-6--6/8-------6/8-------------------------------------- E |-6-6-x-6/8----------------10-8--6/8-------5-6--5-------6/8-8-8-10--8-6--- C |------------------------------------x2--7--------7-5-------------------7- G |-------------------------------------------------------------------------

MORE SONGS FROM THIS ALBUM?

Easy-to-print PDFs tabs for over 150 albums.

Easy-to-print PDFs tabs for over 150 albums.