Debut Album

mansard roof, oxford comma, a-punk

I first discovered these guys when iTunes gave away Mansard Roof as the free single of the week (Remember when they used to do that?). I was instantly hooked, the pop sensibility merged with the afro rhythms and obvious Paul Simon influence made them a perfect fit for me.

 

A perfect album for a road trip or a soundtrack for getting ready for a night out. Pure joy 🙂

This video is part of a project I’m working on. I’m learning to play my favourite albums on a ukulele. If you enjoyed it why not check out some other classic albums that I arranged. Like Mac Demarco or Hippo Campus.

Vampire Weekend Ukulele Tabs

Not sure how to read these? Check out this guide and you will be learning these ukulele tabs in no time.

mansard roof

A|----------8-7-5---5----------------------8-7-5---5----------------
E|-5-5-5----------8---8-10-5-8----5-5-5----------8---5-8-3-5-6-8-10-
C|-5-5-5--------------------------5-5-5-----------------------------
G|-5-5-5--------------------------5-5-5-----------------------------


A|----------8-10-8-7----7-7-8-10-7-8-5-7-3-5----3-0-3-5-8----8-7-5-7-8-
E|---------------------------------------------------------------------
C|-4/2/0---------------------------------------------------------------
G|---------------------------------------------------------------------

oxford comma

                  Play this part with your palm resting on your strings
A|-2-2----2-2----|------------------------------------------------- E|-3-3----3-3----|-10-10-10-10-10-10-12-10----15-15-15-15-15-14-15- C|-2-2----2-2----|-11-11-11-11-11-11-11-11----11-11-11-11-11-11-11- G|---------------|-------------------------------------------------
A|-------------------------------------------------------|- E|-10-10-10-10-10-10-12-10----15-15-15-15-15-14-12-14----|- C|-11-11-11-11-11-11-11-11----11-11-11-11-11-11-11-11----|- G|-------------------------------------------------------|-

A|---10----10-9-7-------7-9-9-7----------------------|- E|----------------10------------10-8-7----8p7--------|- C|-7------------------------------------------9-7----|- G|---------------------------------------------------|-
A|---10----10-10----10-10-10-9-7-9-10----10-12-10-10-9-7-9----|- E|------------------------------------------------------------|- C|-7----------------------------------------------------------|- G|------------------------------------------------------------|-

a-punk

A|-4-4-7-7-2-2-5-5-5-5-5-5-5-5-5-5----|-
E|-5-5-5-5-3-3-3-3-2-2-2-2-2-2-2-2----|-
C|-4-4-4-4-2-2-2-2-2-2-2-2-2-2-2-2----|-
G|-4-4-4-4-2-2-2-2-2-2-2-2-2-2-2-2----|-

More songs from this album?

Support the site by joining Learn The Licks and getting easy to print PDFs of 150+ albums

login

Badge Unlocked

Welcome To The Jungle

Complete your first lesson

Badge Unlocked

Start Me Up

Complete The Basics

The Basics

In this section, we will cover everything you need to know about starting to play the ukulele.