Die For The Hype, Doctor Doctor, Medication

Die For The Hype, Doctor Doctor, Medication

Believe it or not, I only just heard this guy for the first time yesterday. I was looking for artists that are similar to Billie Eilish seen as I just had an influx or subs from Billie fans and loads of them were suggesting I give this dude a listen. His sound is a melting pot of loads of sounds and genres, and it’s clear in his music that he is inspired by a plethora of artists.

This video is part of a project I’m working on. I’m learning to play my favourite albums on a ukulele. If you enjoyed it why not check out some other classic albums that I arranged. Like Billie Eilish or My Chemical Romance.

YUNGBLUD Ukulele Tabs

Not sure how to read these? Check out my free course and you will be learning these ukulele tabs in no time.

Die For The Hype

A |---------------------------------|---------------------------------|
E |-0-0-0-0-0-0-0-0-2-2-2-2-1-1-1-1-|---------------------------------|
C |-1-1-1-1-1-1-1-1-2-2-2-2-0-0-0-0-|-1---1---1-1---1-1-6-6-6-6-6-6-6-|
G |---------------------------------|---------------------------------|

A |---------------------------------------------| E |-5-4-5-4-5----------------------5----------5-| C |------------2-1-2--2-1-2--2-2-1----1-2-1-2---| G |---------------------------------------------|
A |-12-11-12-11-12---------------------------12------------12--
E |----------------10-9-10--10-9-10--10-10-9-----9-10-9-10-----
C |------------------------------------------------------------
G |------------------------------------------------------------


Doctor Doctor

A |-----8-------------------------1---------------
E |-------9---11p9---9----7---------2---4p2---2---
C |-6/8-----8------8------------1-----1-----1-----
G |-----------------------------------------------

Medication

A |-4---4---4---4-----1---1---1---1-|
E |-1-1-1-1-1-1-1-1-2-2-2-2-2-2-2-2-|
C |---1---1---1---1-1---1---1---1---|
G |---------------------------------|

A |----------------------------------------------------------
E |-4-4---6-4----x2-----6-4---4--4-4---6-4-----------6-4-----
C |-----5-----5-------5-----5--------5-----5--x2---5-----5-3-
G |----------------------------------------------------------

MORE SONGS FROM THIS ALBUM?

Easy-to-print PDFs tabs for over 150 albums.

Easy-to-print PDFs tabs for over 150 albums.

Badge Unlocked

Welcome To The Jungle

Complete your first lesson

Badge Unlocked

Start Me Up

Complete The Basics

The Basics

In this section, we will cover everything you need to know about starting to play the ukulele.