Daydreaming

Daydreaming

Harry Styles third album Harrys House follows suit from his previous albums and is another masterpiece. Let’s learn to play Daydreaming on the ukulele.

What Are We Learning To Play?

Below is a video of what you will be able to play by the end of this post. 

Ukulele Tabs

We are mimicking Harry’s vocal line for this riff. For the three chords are the beginning, use a down, down, up strumming pattern. Then we have a hammer-on and pull off, if you are unfamiliar with them. Check out the link articles to get brushed up with them. The rest of the notes are super straight-forward. 

A|-2--2-2-------------2----------|
E|-3--3-3--2h3p2---------2-------|
C|-0--0-0----------4--------2--4-|
G|-0--0-0------------------------|



A|-2--2-2-------------2-----5--7-|
E|-3--3-3--2h3p2---------2-------|
C|-0--0-0----------4-------------|
G|-0--0-0------------------------|

MORE SONGS FROM THIS ALBUM?

Easy-to-print PDFs tabs for over 150 albums.

Easy-to-print PDFs tabs for over 150 albums.