Keep Driving

Keep Driving

Harry Styles hit us again with another sublime album, jam-packed with blissful and thoughtful tracks. One of the standouts being Keep Driving. It lends itself really well to the ukulele so let’s learn play it.

What Are We Learning To Play?

Below is a video of what you will be able to play by the end of this post. 

Ukulele Tabs

Seen as this is a fingerpicking piece, it makes sense to get both sets of fingers prepared before we start playing.

Firstly, the picking hand. Use your thumb on the C string, Index finger on the E and lastly your middle finger on the A string. Now onto the fretting hand. We are playing three different chords, however, the only notes that are changing are the ones on the C string.

Don’t play the notes that are orange, these are just there to show you what chords to make. 

A|-7-----7-----|-------7-----|-7-----7-----|-------7-----|
E|-9-9-------9-|---9-------9-|-9-9-------9-|---9-------9-|
C|-9---9-------|-9---9-------|-8---8-------|-8---8-------|
G|-------------|-------------|-------------|-------------|



A|-7-----7-----|-------7-----|-7-----7-----|-------7-----|
E|-9-9-------9-|---9-------9-|-9-9-------9-|---9-------9-|
C|-6---6-------|-6---6-------|-8---8-------|-8---8-------|
G|-------------|-------------|-------------|-------------|

MORE SONGS FROM THIS ALBUM?

Easy-to-print PDFs tabs for over 150 albums.

Easy-to-print PDFs tabs for over 150 albums.