Snow (Hey Oh)

Snow (Hey Oh)

Often regarded as one of the hardest sings in the world to play on guitar…why not take away two strings, and use a much smaller instrument and lets give it a go on the ukulele!

What Are We Learning To Play?

Below is a video of what you will be able to play by the end of this post. This is a segment taken from my medley of the Stadium Arcadium album

Ukulele Tabs

What makes this song so difficult is the sheer speed of it. So i advise learning the fundamentals of it (the chord positions, the picking and the hammer-on/pull off). Then work on speeding it up. This guide on how to get fast on the ukulele may be helpful.

A|-----2---2h4p2---2-|-----2---2h4p2---2-|
E|---4---4-------4---|---4---4-------4---|
C|-3-----------------|-4-----------------|
G|-------------------|-------------------|

A|-----2---2h4p2---2-|-----4---4h6p4---4-|
E|---2---2-------2---|---6---6-------6---|
C|-3-----------------|-6-----------------|
G|-------------------|-------------------|