Turn It Again

Turn It Again

One of the somewhat obscure and often forgotten about tracks from Stadium Arcadium. It’s a shame as it’s got some lovely guitar work by John Frusciante. Let’s learn to play the main riff from Turn It Again on the ukulele.

What Are We Learning To Play?

Below is a video of what you will be able to play by the end of this post. This is a segment taken from my medley of the Stadium Arcadium album

Ukulele Tabs

A|-------5/8---------|----|-------5/8---------|----|
E|-6-6---------6---6-|----|-5-5---------5---5-|----|
C|-7-7-------------7-|-x2-|-5-5-------------5-|-x2-|
G|-------------------|----|-------------------|----|

A|-------3/5---------|----|-------5/8---------|-----------------|
E|-3-3---------6---3-|----|-6-6---------6---6-|-6-6---6/5/6/5/6-|
C|-3-3-------------3-|-x2-|-7-7-------------7-|-7-7---7/6/7/6/7-|
G|-------------------|----|-------------------|-----------------|