Poison

Poison

I first heard Alice Coopers music as a child when schools Out would get blasted at my house as a kid. I loved the outro so much, that falsetto harmony is just gorgeous. Today though, we are playing his biggest hit, Poison.

What Are We Learning To Play?

Below is a video of what you will be able to play by the end of this post. 

Ukulele Tabs

This song sounds great on the ukulele as we able to let a few notes ring out making it sound nice and full. Some beginners may struggle when it comes to stretching your pinky finger to the 7th fret. All i would say is do some subtle finger stretches before to prepare yourself. 

A |-----0---7---5---|-----3-----3-----|-----0---7---5---|-----3-----3-----|
E |-----------------|-2-3---2-3---0---|-----------------|-2-3---2-3-------|
C |-2-2---2---2---2-|---------------2-|-2-2---2---2---2-|-------------4-2-|
G |-----------------|-----------------|-----------------|-----------------|

A |-----0---7---5---|-----3-----3-----|----|-----0---7---5---0---7---5---|
E |-----------------|-2-3---2-3-------|----|-----------------------------|
C |-2-2---2---2---2-|-------------4-2-|-x3-|-0-2---2---2---2---2---2-----|
G |-----------------|-----------------|----|-----------------------------|