Take a Look Around

Take a Look Around

I managed to see these guys live at Leeds Festival a few years and they are seriously one of the best bands i have seen live. So much energy and nostalgia in those mosh pits. Can you imagine when this song breaks down and Fred starts singing “ i know why wanna hate me”.  So let’s learn to play some Wes Borland magic from the Mission Impossible theme tune.

What Are We Learning To Play?

Below is a video of what you will be able to play by the end of this post. 

Ukulele Tabs

On the studio recording, this into riff has a delay pedal. So the double notes are trying to recreate that. Use your palm muting technique to dampen the riff a little bit.

A |------------------------------------------------------|
E |------------------------2h4p2-------------------------|
C |-3--3-3---3-3---3-3---3-------3---3-3---3-3---3-3-1-2-|
G |------------------------------------------------------|

A |--9----------9----------9----------9--------------|
E |----11---------11---------11---------11-----------|
C |-------10---------9----------8----------11-----10-|
G |--------------------------------------------------|

A |-------------------------|------------------------|
E |---------------------2-4-|------------------------|
C |--1-3--1-3--1-3--1-3-----|-1-3--1-3--1-3--1-3-1-2-|
G |-------------------------|------------------------|