96 Quite Bitter Beans

96 Quite Bitter Beans

This is one of those songs that all my mates used to play on guitar but i never had a clue what it was. It wasn’t until i was playing Tony Hawks Pro Skater 3 and that killer riff came back into my life. Let’s learn to play it on the ukulele.

What Are We Learning To Play?

Below is a video of what you will be able to play by the end of this post. 

Ukulele Tabs

It’s a great tune to learn as it kinda has a challenging rhythm so its going to push you a little bit if you are a novice. Its also extremely nippy so i suggest slowing it way down and work up to the correct speed. This post will help with that.

A |-----1---------1-2p1-----------2/4-2-----------------|
E |---2---------2-------2-1-----2---------6-4-2---4/6-2-|
C |-3-----3---3-----------------------------------------|
G |---------------------------4-------------------------|

A |------------------3---3---3---|
E |--6---6---6-----6-3---3---3---|
C |--3---3---3-----3-------------|
G |------------------------------|